  0
SECTION
  2
HEADER
  9
$ACADVER
  1
AC1002
  9
$INSBASE
 10
0.0
 20
0.0
  9
$EXTMIN
 10
-250.4432
 20
-100.6896
  9
$EXTMAX
 10
250.6337
 20
100.9145
  9
$LIMMIN
 10
0.0
 20
0.0
  9
$LIMMAX
 10
12.0
 20
9.0
  9
$ORTHOMODE
 70
     0
  9
$REGENMODE
 70
     1
  9
$FILLMODE
 70
     1
  9
$QTEXTMODE
 70
     0
  9
$DRAGMODE
 70
     2
  9
$LTSCALE
 40
1.0
  9
$OSMODE
 70
    37
  9
$ATTMODE
 70
     1
  9
$TEXTSIZE
 40
0.2
  9
$TRACEWID
 40
0.05
  9
$TEXTSTYLE
  7
STANDARD
  9
$CLAYER
  8
0
  9
$CELTYPE
  6
BYLAYER
  9
$CECOLOR
 62
   256
  9
$DIMSCALE
 40
1.0
  9
$DIMASZ
 40
0.18
  9
$DIMEXO
 40
0.0625
  9
$DIMDLI
 40
0.38
  9
$DIMRND
 40
0.0
  9
$DIMDLE
 40
0.0
  9
$DIMEXE
 40
0.18
  9
$DIMTP
 40
0.0
  9
$DIMTM
 40
0.0
  9
$DIMTXT
 40
0.18
  9
$DIMCEN
 40
0.09
  9
$DIMTSZ
 40
0.0
  9
$DIMTOL
 70
     0
  9
$DIMLIM
 70
     0
  9
$DIMTIH
 70
     1
  9
$DIMTOH
 70
     1
  9
$DIMSE1
 70
     0
  9
$DIMSE2
 70
     0
  9
$DIMTAD
 70
     0
  9
$DIMZIN
 70
     0
  9
$DIMBLK
  1

  9
$LUNITS
 70
     2
  9
$LUPREC
 70
     4
  9
$SKETCHINC
 40
0.1
  9
$FILLETRAD
 40
0.0
  9
$AUNITS
 70
     0
  9
$AUPREC
 70
     0
  9
$MENU
  1
.
  9
$ELEVATION
 40
0.0
  9
$THICKNESS
 40
0.0
  9
$LIMCHECK
 70
     0
  9
$CHAMFERA
 40
0.0
  9
$CHAMFERB
 40
0.0
  9
$SKPOLY
 70
     0
  9
$TDCREATE
 40
2460149.462072975
  9
$TDUPDATE
 40
2460149.46207316
  9
$TDINDWG
 40
0.0000000116
  9
$TDUSRTIMER
 40
0.0000000116
  9
$USRTIMER
 70
     1
  9
$ANGBASE
 50
0.0
  9
$ANGDIR
 70
     0
  9
$PDMODE
 70
     0
  9
$PDSIZE
 40
0.0
  9
$PLINEWID
 40
0.0
  9
$COORDS
 70
     1
  9
$SURFTAB1
 70
     6
  9
$SURFTAB2
 70
     6
  9
$SURFTYPE
 70
     6
  9
$SURFU
 70
     6
  9
$SURFV
 70
     6
  9
$UCSNAME
  2

  9
$UCSORG
 10
0.0
 20
0.0
 30
0.0
  9
$UCSXDIR
 10
1.0
 20
0.0
 30
0.0
  9
$UCSYDIR
 10
0.0
 20
1.0
 30
0.0
  9
$USERI1
 70
     0
  9
$USERI2
 70
     0
  9
$USERI3
 70
     0
  9
$USERI4
 70
     0
  9
$USERI5
 70
     0
  9
$USERR1
 40
0.0
  9
$USERR2
 40
0.0
  9
$USERR3
 40
0.0
  9
$USERR4
 40
0.0
  9
$USERR5
 40
0.0
  0
ENDSEC
  0
SECTION
  2
TABLES
  0
TABLE
  2
LTYPE
 70
     1
  0
LTYPE
  2
CONTINUOUS
 70
     0
  3
Solid line
 72
    65
 73
     0
 40
0.0
  0
ENDTAB
  0
TABLE
  2
LAYER
 70
     2
  0
LAYER
  2
0
 70
     0
 62
     7
  6
CONTINUOUS
  0
LAYER
  2
LAYER_1
 70
     0
 62
     7
  6
CONTINUOUS
  0
ENDTAB
  0
TABLE
  2
STYLE
 70
     1
  0
STYLE
  2
STANDARD
 70
     0
 40
0.0
 41
1.0
 50
0.0
 71
     0
 42
0.2
  3
txt
  4

  0
ENDTAB
  0
TABLE
  2
VIEW
 70
     0
  0
ENDTAB
  0
ENDSEC
  0
SECTION
  2
BLOCKS
  0
ENDSEC
  0
SECTION
  2
ENTITIES
  0
POLYLINE
  8
LAYER_1
 66
     1
 70
     1
  0
VERTEX
  8
LAYER_1
 10
-157.0517
 20
-88.189
  0
VERTEX
  8
LAYER_1
 10
-157.0517
 20
-91.1889
  0
VERTEX
  8
LAYER_1
 10
-160.0514
 20
-91.1889
  0
VERTEX
  8
LAYER_1
 10
-160.0514
 20
-88.189
  0
VERTEX
  8
LAYER_1
 10
-170.9229
 20
-88.189
  0
VERTEX
  8
LAYER_1
 10
-170.9229
 20
-100.1889
  0
VERTEX
  8
LAYER_1
 10
-173.9233
 20
-100.1889
  0
VERTEX
  8
LAYER_1
 10
-173.9233
 20
-88.189
  0
VERTEX
  8
LAYER_1
 10
-184.7945
 20
-88.189
  0
VERTEX
  8
LAYER_1
 10
-184.7945
 20
-91.1889
  0
VERTEX
  8
LAYER_1
 10
-187.7942
 20
-91.1889
  0
VERTEX
  8
LAYER_1
 10
-187.7942
 20
-88.189
  0
VERTEX
  8
LAYER_1
 10
-190.7942
 20
-88.189
  0
VERTEX
  8
LAYER_1
 10
-191.0013
 20
-87.5464
  0
VERTEX
  8
LAYER_1
 10
-192.6488
 20
-81.2423
  0
VERTEX
  8
LAYER_1
 10
-194.0736
 20
-74.439
  0
VERTEX
  8
LAYER_1
 10
-195.2618
 20
-67.2109
  0
VERTEX
  8
LAYER_1
 10
-195.9709
 20
-61.4835
  0
VERTEX
  8
LAYER_1
 10
-196.372
 20
-61.4338
  0
VERTEX
  8
LAYER_1
 10
-203.9451
 20
-60.0883
  0
VERTEX
  8
LAYER_1
 10
-211.1728
 20
-58.384
  0
VERTEX
  8
LAYER_1
 10
-217.9763
 20
-56.3397
  0
VERTEX
  8
LAYER_1
 10
-224.2808
 20
-53.9771
  0
VERTEX
  8
LAYER_1
 10
-230.0166
 20
-51.3228
  0
VERTEX
  8
LAYER_1
 10
-235.122
 20
-48.4057
  0
VERTEX
  8
LAYER_1
 10
-239.5398
 20
-45.2575
  0
VERTEX
  8
LAYER_1
 10
-243.2228
 20
-41.9128
  0
VERTEX
  8
LAYER_1
 10
-246.13
 20
-38.408
  0
VERTEX
  8
LAYER_1
 10
-248.2295
 20
-34.7821
  0
VERTEX
  8
LAYER_1
 10
-249.4984
 20
-31.0744
  0
VERTEX
  8
LAYER_1
 10
-249.9231
 20
-27.3258
  0
VERTEX
  8
LAYER_1
 10
-249.4984
 20
-25.8625
  0
VERTEX
  8
LAYER_1
 10
-248.2295
 20
-24.4151
  0
VERTEX
  8
LAYER_1
 10
-246.13
 20
-22.9997
  0
VERTEX
  8
LAYER_1
 10
-243.2228
 20
-21.6316
  0
VERTEX
  8
LAYER_1
 10
-239.5398
 20
-20.326
  0
VERTEX
  8
LAYER_1
 10
-235.122
 20
-19.0969
  0
VERTEX
  8
LAYER_1
 10
-230.0166
 20
-17.9582
  0
VERTEX
  8
LAYER_1
 10
-224.2808
 20
-16.9217
  0
VERTEX
  8
LAYER_1
 10
-217.9763
 20
-15.9995
  0
VERTEX
  8
LAYER_1
 10
-211.1728
 20
-15.2016
  0
VERTEX
  8
LAYER_1
 10
-203.9451
 20
-14.5362
  0
VERTEX
  8
LAYER_1
 10
-196.372
 20
-14.0109
  0
VERTEX
  8
LAYER_1
 10
-196.1991
 20
-11.7401
  0
VERTEX
  8
LAYER_1
 10
-195.2618
 20
-4.1667
  0
VERTEX
  8
LAYER_1
 10
-194.0736
 20
3.061
  0
VERTEX
  8
LAYER_1
 10
-192.6488
 20
9.8644
  0
VERTEX
  8
LAYER_1
 10
-191.0013
 20
16.1689
  0
VERTEX
  8
LAYER_1
 10
-189.9229
 20
19.5125
  0
VERTEX
  8
LAYER_1
 10
-189.9229
 20
-32.228
  0
VERTEX
  8
LAYER_1
 10
-186.9232
 20
-32.228
  0
VERTEX
  8
LAYER_1
 10
-186.9232
 20
27.4017
  0
VERTEX
  8
LAYER_1
 10
-184.9229
 20
31.4279
  0
VERTEX
  8
LAYER_1
 10
-182.5914
 20
35.1109
  0
VERTEX
  8
LAYER_1
 10
-181.9229
 20
35.9064
  0
VERTEX
  8
LAYER_1
 10
-181.9229
 20
-25.2487
  0
VERTEX
  8
LAYER_1
 10
-178.9232
 20
-25.2487
  0
VERTEX
  8
LAYER_1
 10
-178.9232
 20
39.0359
  0
VERTEX
  8
LAYER_1
 10
-177.6208
 20
40.1175
  0
VERTEX
  8
LAYER_1
 10
-175.036
 20
41.3865
  0
VERTEX
  8
LAYER_1
 10
-173.9233
 20
41.5674
  0
VERTEX
  8
LAYER_1
 10
-173.9233
 20
-23.4012
  0
VERTEX
  8
LAYER_1
 10
-170.9229
 20
-23.4012
  0
VERTEX
  8
LAYER_1
 10
-170.9229
 20
41.5674
  0
VERTEX
  8
LAYER_1
 10
-169.8096
 20
41.3865
  0
VERTEX
  8
LAYER_1
 10
-167.2255
 20
40.1175
  0
VERTEX
  8
LAYER_1
 10
-165.9227
 20
39.0359
  0
VERTEX
  8
LAYER_1
 10
-165.9227
 20
-25.2487
  0
VERTEX
  8
LAYER_1
 10
-162.9234
 20
-25.2487
  0
VERTEX
  8
LAYER_1
 10
-162.9234
 20
35.9064
  0
VERTEX
  8
LAYER_1
 10
-162.2548
 20
35.1109
  0
VERTEX
  8
LAYER_1
 10
-159.923
 20
31.4279
  0
VERTEX
  8
LAYER_1
 10
-157.9227
 20
27.4017
  0
VERTEX
  8
LAYER_1
 10
-157.9227
 20
-32.228
  0
VERTEX
  8
LAYER_1
 10
-154.9231
 20
-32.228
  0
VERTEX
  8
LAYER_1
 10
-154.9231
 20
19.5125
  0
VERTEX
  8
LAYER_1
 10
-153.8446
 20
16.1689
  0
VERTEX
  8
LAYER_1
 10
-152.1979
 20
9.8644
  0
VERTEX
  8
LAYER_1
 10
-150.7723
 20
3.061
  0
VERTEX
  8
LAYER_1
 10
-149.5841
 20
-4.1667
  0
VERTEX
  8
LAYER_1
 10
-148.6468
 20
-11.7401
  0
VERTEX
  8
LAYER_1
 10
-148.4739
 20
-14.0109
  0
VERTEX
  8
LAYER_1
 10
-140.9008
 20
-14.5362
  0
VERTEX
  8
LAYER_1
 10
-133.6731
 20
-15.2016
  0
VERTEX
  8
LAYER_1
 10
-126.8695
 20
-15.9995
  0
VERTEX
  8
LAYER_1
 10
-120.5657
 20
-16.9217
  0
VERTEX
  8
LAYER_1
 10
-114.8292
 20
-17.9582
  0
VERTEX
  8
LAYER_1
 10
-109.7241
 20
-19.0969
  0
VERTEX
  8
LAYER_1
 10
-105.3059
 20
-20.326
  0
VERTEX
  8
LAYER_1
 10
-101.6233
 20
-21.6316
  0
VERTEX
  8
LAYER_1
 10
-98.716
 20
-22.9997
  0
VERTEX
  8
LAYER_1
 10
-96.6163
 20
-24.4151
  0
VERTEX
  8
LAYER_1
 10
-95.3474
 20
-25.8625
  0
VERTEX
  8
LAYER_1
 10
-94.923
 20
-27.3258
  0
VERTEX
  8
LAYER_1
 10
-95.3474
 20
-31.0744
  0
VERTEX
  8
LAYER_1
 10
-96.6163
 20
-34.7821
  0
VERTEX
  8
LAYER_1
 10
-98.716
 20
-38.408
  0
VERTEX
  8
LAYER_1
 10
-101.6233
 20
-41.9128
  0
VERTEX
  8
LAYER_1
 10
-105.3059
 20
-45.2575
  0
VERTEX
  8
LAYER_1
 10
-109.7241
 20
-48.4057
  0
VERTEX
  8
LAYER_1
 10
-114.8292
 20
-51.3228
  0
VERTEX
  8
LAYER_1
 10
-120.5657
 20
-53.9771
  0
VERTEX
  8
LAYER_1
 10
-126.8695
 20
-56.3397
  0
VERTEX
  8
LAYER_1
 10
-133.6731
 20
-58.384
  0
VERTEX
  8
LAYER_1
 10
-140.9008
 20
-60.0883
  0
VERTEX
  8
LAYER_1
 10
-148.4739
 20
-61.4338
  0
VERTEX
  8
LAYER_1
 10
-148.8754
 20
-61.4835
  0
VERTEX
  8
LAYER_1
 10
-149.5841
 20
-67.2109
  0
VERTEX
  8
LAYER_1
 10
-150.7723
 20
-74.439
  0
VERTEX
  8
LAYER_1
 10
-152.1979
 20
-81.2423
  0
VERTEX
  8
LAYER_1
 10
-153.8446
 20
-87.5464
  0
VERTEX
  8
LAYER_1
 10
-154.0513
 20
-88.189
  0
VERTEX
  8
LAYER_1
 10
-157.0517
 20
-88.189
  0
SEQEND
  8
LAYER_1
  0
POLYLINE
  8
LAYER_1
 66
     1
 70
     1
  0
VERTEX
  8
LAYER_1
 10
-82.7906
 20
1.0276
  0
VERTEX
  8
LAYER_1
 10
-82.2999
 20
1.2605
  0
VERTEX
  8
LAYER_1
 10
-81.3622
 20
8.8335
  0
VERTEX
  8
LAYER_1
 10
-80.1744
 20
16.0616
  0
VERTEX
  8
LAYER_1
 10
-78.7492
 20
22.8649
  0
VERTEX
  8
LAYER_1
 10
-77.102
 20
29.1691
  0
VERTEX
  8
LAYER_1
 10
-76.895
 20
29.8115
  0
VERTEX
  8
LAYER_1
 10
-76.0236
 20
29.8115
  0
VERTEX
  8
LAYER_1
 10
-76.0236
 20
-26.1493
  0
VERTEX
  8
LAYER_1
 10
-73.0236
 20
-26.1493
  0
VERTEX
  8
LAYER_1
 10
-73.0236
 20
29.8115
  0
VERTEX
  8
LAYER_1
 10
-68.0237
 20
29.8115
  0
VERTEX
  8
LAYER_1
 10
-68.0237
 20
-33.1283
  0
VERTEX
  8
LAYER_1
 10
-65.0233
 20
-33.1283
  0
VERTEX
  8
LAYER_1
 10
-65.0233
 20
29.8115
  0
VERTEX
  8
LAYER_1
 10
-60.0237
 20
29.8115
  0
VERTEX
  8
LAYER_1
 10
-60.0237
 20
-34.9762
  0
VERTEX
  8
LAYER_1
 10
-57.0237
 20
-34.9762
  0
VERTEX
  8
LAYER_1
 10
-57.0237
 20
29.8115
  0
VERTEX
  8
LAYER_1
 10
-52.0238
 20
29.8115
  0
VERTEX
  8
LAYER_1
 10
-52.0238
 20
-33.1283
  0
VERTEX
  8
LAYER_1
 10
-49.0238
 20
-33.1283
  0
VERTEX
  8
LAYER_1
 10
-49.0238
 20
29.8115
  0
VERTEX
  8
LAYER_1
 10
-44.0235
 20
29.8115
  0
VERTEX
  8
LAYER_1
 10
-44.0235
 20
-26.1493
  0
VERTEX
  8
LAYER_1
 10
-41.0235
 20
-26.1493
  0
VERTEX
  8
LAYER_1
 10
-41.0235
 20
29.8115
  0
VERTEX
  8
LAYER_1
 10
-40.1525
 20
29.8115
  0
VERTEX
  8
LAYER_1
 10
-39.945
 20
29.1691
  0
VERTEX
  8
LAYER_1
 10
-38.2983
 20
22.8649
  0
VERTEX
  8
LAYER_1
 10
-36.8727
 20
16.0616
  0
VERTEX
  8
LAYER_1
 10
-35.6852
 20
8.8335
  0
VERTEX
  8
LAYER_1
 10
-34.7472
 20
1.2605
  0
VERTEX
  8
LAYER_1
 10
-34.0699
 20
-6.5751
  0
VERTEX
  8
LAYER_1
 10
-33.6606
 20
-14.5874
  0
VERTEX
  8
LAYER_1
 10
-33.5238
 20
-22.6886
  0
VERTEX
  8
LAYER_1
 10
-33.6606
 20
-30.7894
  0
VERTEX
  8
LAYER_1
 10
-34.0699
 20
-38.8017
  0
VERTEX
  8
LAYER_1
 10
-34.7472
 20
-46.6372
  0
VERTEX
  8
LAYER_1
 10
-35.6852
 20
-54.2103
  0
VERTEX
  8
LAYER_1
 10
-36.8727
 20
-61.4384
  0
VERTEX
  8
LAYER_1
 10
-38.2983
 20
-68.2417
  0
VERTEX
  8
LAYER_1
 10
-39.945
 20
-74.5461
  0
VERTEX
  8
LAYER_1
 10
-41.7953
 20
-80.2819
  0
VERTEX
  8
LAYER_1
 10
-43.8288
 20
-85.3871
  0
VERTEX
  8
LAYER_1
 10
-46.0237
 20
-89.8052
  0
VERTEX
  8
LAYER_1
 10
-48.3552
 20
-93.4882
  0
VERTEX
  8
LAYER_1
 10
-50.7982
 20
-96.3952
  0
VERTEX
  8
LAYER_1
 10
-53.3259
 20
-98.4949
  0
VERTEX
  8
LAYER_1
 10
-55.9103
 20
-99.7638
  0
VERTEX
  8
LAYER_1
 10
-58.1766
 20
-100.132
  0
VERTEX
  8
LAYER_1
 10
-60.5021
 20
-100.1885
  0
VERTEX
  8
LAYER_1
 10
-64.4595
 20
-100.0982
  0
VERTEX
  8
LAYER_1
 10
-68.3747
 20
-99.8228
  0
VERTEX
  8
LAYER_1
 10
-72.2034
 20
-99.3651
  0
VERTEX
  8
LAYER_1
 10
-75.9051
 20
-98.7301
  0
VERTEX
  8
LAYER_1
 10
-79.4392
 20
-97.9252
  0
VERTEX
  8
LAYER_1
 10
-82.7659
 20
-96.9585
  0
VERTEX
  8
LAYER_1
 10
-85.8495
 20
-95.8412
  0
VERTEX
  8
LAYER_1
 10
-88.6562
 20
-94.5854
  0
VERTEX
  8
LAYER_1
 10
-91.1546
 20
-93.2046
  0
VERTEX
  8
LAYER_1
 10
-93.3182
 20
-91.7141
  0
VERTEX
  8
LAYER_1
 10
-95.1226
 20
-90.1302
  0
VERTEX
  8
LAYER_1
 10
-96.5489
 20
-88.4703
  0
VERTEX
  8
LAYER_1
 10
-97.5808
 20
-86.7526
  0
VERTEX
  8
LAYER_1
 10
-98.207
 20
-84.9962
  0
VERTEX
  8
LAYER_1
 10
-98.4208
 20
-83.2196
  0
VERTEX
  8
LAYER_1
 10
-98.2197
 20
-81.4429
  0
VERTEX
  8
LAYER_1
 10
-97.6062
 20
-79.6855
  0
VERTEX
  8
LAYER_1
 10
-96.5867
 20
-77.9664
  0
VERTEX
  8
LAYER_1
 10
-95.1724
 20
-76.3045
  0
VERTEX
  8
LAYER_1
 10
-93.3789
 20
-74.7179
  0
VERTEX
  8
LAYER_1
 10
-91.2266
 20
-73.2244
  0
VERTEX
  8
LAYER_1
 10
-88.7374
 20
-71.84
  0
VERTEX
  8
LAYER_1
 10
-85.9402
 20
-70.5802
  0
VERTEX
  8
LAYER_1
 10
-82.8647
 20
-69.4585
  0
VERTEX
  8
LAYER_1
 10
-79.5447
 20
-68.4868
  0
VERTEX
  8
LAYER_1
 10
-78.7336
 20
-68.3005
  0
VERTEX
  8
LAYER_1
 10
-78.7492
 20
-68.2417
  0
VERTEX
  8
LAYER_1
 10
-80.1744
 20
-61.4384
  0
VERTEX
  8
LAYER_1
 10
-81.3622
 20
-54.2103
  0
VERTEX
  8
LAYER_1
 10
-82.2999
 20
-46.6372
  0
VERTEX
  8
LAYER_1
 10
-82.9776
 20
-38.8017
  0
VERTEX
  8
LAYER_1
 10
-83.3868
 20
-30.7894
  0
VERTEX
  8
LAYER_1
 10
-83.3921
 20
-30.4627
  0
VERTEX
  8
LAYER_1
 10
-84.8392
 20
-29.5765
  0
VERTEX
  8
LAYER_1
 10
-86.7657
 20
-28.1196
  0
VERTEX
  8
LAYER_1
 10
-88.4809
 20
-26.518
  0
VERTEX
  8
LAYER_1
 10
-89.9654
 20
-24.789
  0
VERTEX
  8
LAYER_1
 10
-91.2043
 20
-22.9517
  0
VERTEX
  8
LAYER_1
 10
-92.1833
 20
-21.0263
  0
VERTEX
  8
LAYER_1
 10
-92.8913
 20
-19.0338
  0
VERTEX
  8
LAYER_1
 10
-93.3214
 20
-16.9961
  0
VERTEX
  8
LAYER_1
 10
-93.4678
 20
-14.9356
  0
VERTEX
  8
LAYER_1
 10
-93.3298
 20
-12.8746
  0
VERTEX
  8
LAYER_1
 10
-92.909
 20
-10.8359
  0
VERTEX
  8
LAYER_1
 10
-92.209
 20
-8.8417
  0
VERTEX
  8
LAYER_1
 10
-91.2386
 20
-6.9137
  0
VERTEX
  8
LAYER_1
 10
-90.0074
 20
-5.0737
  0
VERTEX
  8
LAYER_1
 10
-88.5296
 20
-3.3412
  0
VERTEX
  8
LAYER_1
 10
-86.8218
 20
-1.7353
  0
VERTEX
  8
LAYER_1
 10
-84.9016
 20
-0.2738
  0
VERTEX
  8
LAYER_1
 10
-82.7906
 20
1.0276
  0
SEQEND
  8
LAYER_1
  0
POLYLINE
  8
LAYER_1
 66
     1
 70
     1
  0
VERTEX
  8
LAYER_1
 10
-22.3841
 20
22.4776
  0
VERTEX
  8
LAYER_1
 10
-22.3841
 20
-27.5174
  0
VERTEX
  8
LAYER_1
 10
-19.3841
 20
-27.5174
  0
VERTEX
  8
LAYER_1
 10
-19.3841
 20
25.6935
  0
VERTEX
  8
LAYER_1
 10
-14.3842
 20
25.6935
  0
VERTEX
  8
LAYER_1
 10
-14.3842
 20
-35.0393
  0
VERTEX
  8
LAYER_1
 10
-11.3841
 20
-35.0393
  0
VERTEX
  8
LAYER_1
 10
-11.3841
 20
25.6935
  0
VERTEX
  8
LAYER_1
 10
-6.3839
 20
25.6935
  0
VERTEX
  8
LAYER_1
 10
-6.3839
 20
-37.2463
  0
VERTEX
  8
LAYER_1
 10
-3.3838
 20
-37.2463
  0
VERTEX
  8
LAYER_1
 10
-3.3838
 20
25.6935
  0
VERTEX
  8
LAYER_1
 10
1.6161
 20
25.6935
  0
VERTEX
  8
LAYER_1
 10
1.6161
 20
-35.0393
  0
VERTEX
  8
LAYER_1
 10
4.6161
 20
-35.0393
  0
VERTEX
  8
LAYER_1
 10
4.6161
 20
25.6935
  0
VERTEX
  8
LAYER_1
 10
9.616
 20
25.6935
  0
VERTEX
  8
LAYER_1
 10
9.616
 20
-27.5174
  0
VERTEX
  8
LAYER_1
 10
12.616
 20
-27.5174
  0
VERTEX
  8
LAYER_1
 10
12.616
 20
22.4776
  0
VERTEX
  8
LAYER_1
 10
13.0842
 20
20.8781
  0
VERTEX
  8
LAYER_1
 10
13.6797
 20
18.747
  0
VERTEX
  8
LAYER_1
 10
15.2044
 20
11.9436
  0
VERTEX
  8
LAYER_1
 10
16.4751
 20
4.7156
  0
VERTEX
  8
LAYER_1
 10
17.478
 20
-2.8575
  0
VERTEX
  8
LAYER_1
 10
18.2026
 20
-10.6931
  0
VERTEX
  8
LAYER_1
 10
18.6404
 20
-18.7053
  0
VERTEX
  8
LAYER_1
 10
18.7872
 20
-26.8062
  0
VERTEX
  8
LAYER_1
 10
18.6404
 20
-34.9074
  0
VERTEX
  8
LAYER_1
 10
18.2026
 20
-42.9197
  0
VERTEX
  8
LAYER_1
 10
17.478
 20
-50.7552
  0
VERTEX
  8
LAYER_1
 10
16.4751
 20
-58.3283
  0
VERTEX
  8
LAYER_1
 10
15.2044
 20
-65.5563
  0
VERTEX
  8
LAYER_1
 10
13.6797
 20
-72.3597
  0
VERTEX
  8
LAYER_1
 10
13.0842
 20
-74.4908
  0
VERTEX
  8
LAYER_1
 10
11.8625
 20
-78.6638
  0
VERTEX
  8
LAYER_1
 10
9.7885
 20
-84.4
  0
VERTEX
  8
LAYER_1
 10
8.9726
 20
-86.2285
  0
VERTEX
  8
LAYER_1
 10
7.4182
 20
-89.5051
  0
VERTEX
  8
LAYER_1
 10
6.1271
 20
-91.688
  0
VERTEX
  8
LAYER_1
 10
4.7001
 20
-93.9232
  0
VERTEX
  8
LAYER_1
 10
4.0009
 20
-94.783
  0
VERTEX
  8
LAYER_1
 10
2.3192
 20
-96.6636
  0
VERTEX
  8
LAYER_1
 10
1.3723
 20
-97.6062
  0
VERTEX
  8
LAYER_1
 10
0.9285
 20
-97.9393
  0
VERTEX
  8
LAYER_1
 10
-0.2653
 20
-98.714
  0
VERTEX
  8
LAYER_1
 10
-1.3222
 20
-99.2855
  0
VERTEX
  8
LAYER_1
 10
-2.2846
 20
-99.6965
  0
VERTEX
  8
LAYER_1
 10
-3.1835
 20
-99.9737
  0
VERTEX
  8
LAYER_1
 10
-4.0432
 20
-100.1343
  0
VERTEX
  8
LAYER_1
 10
-4.8838
 20
-100.1866
  0
VERTEX
  8
LAYER_1
 10
-5.7249
 20
-100.1343
  0
VERTEX
  8
LAYER_1
 10
-6.5846
 20
-99.9737
  0
VERTEX
  8
LAYER_1
 10
-7.4835
 20
-99.6965
  0
VERTEX
  8
LAYER_1
 10
-8.4458
 20
-99.2855
  0
VERTEX
  8
LAYER_1
 10
-9.5028
 20
-98.714
  0
VERTEX
  8
LAYER_1
 10
-10.6962
 20
-97.9393
  0
VERTEX
  8
LAYER_1
 10
-11.1404
 20
-97.6062
  0
VERTEX
  8
LAYER_1
 10
-12.0872
 20
-96.6636
  0
VERTEX
  8
LAYER_1
 10
-13.7689
 20
-94.783
  0
VERTEX
  8
LAYER_1
 10
-14.4681
 20
-93.9232
  0
VERTEX
  8
LAYER_1
 10
-15.8951
 20
-91.688
  0
VERTEX
  8
LAYER_1
 10
-17.1859
 20
-89.5051
  0
VERTEX
  8
LAYER_1
 10
-18.7403
 20
-86.2285
  0
VERTEX
  8
LAYER_1
 10
-19.5566
 20
-84.4
  0
VERTEX
  8
LAYER_1
 10
-21.6306
 20
-78.6638
  0
VERTEX
  8
LAYER_1
 10
-22.8522
 20
-74.4908
  0
VERTEX
  8
LAYER_1
 10
-23.4477
 20
-72.3597
  0
VERTEX
  8
LAYER_1
 10
-24.9724
 20
-65.5563
  0
VERTEX
  8
LAYER_1
 10
-26.2431
 20
-58.3283
  0
VERTEX
  8
LAYER_1
 10
-27.2461
 20
-50.7552
  0
VERTEX
  8
LAYER_1
 10
-27.9707
 20
-42.9197
  0
VERTEX
  8
LAYER_1
 10
-28.4085
 20
-34.9074
  0
VERTEX
  8
LAYER_1
 10
-28.5549
 20
-26.8062
  0
VERTEX
  8
LAYER_1
 10
-28.4085
 20
-18.7053
  0
VERTEX
  8
LAYER_1
 10
-27.9707
 20
-10.6931
  0
VERTEX
  8
LAYER_1
 10
-27.2461
 20
-2.8575
  0
VERTEX
  8
LAYER_1
 10
-26.2431
 20
4.7156
  0
VERTEX
  8
LAYER_1
 10
-24.9724
 20
11.9436
  0
VERTEX
  8
LAYER_1
 10
-23.4477
 20
18.747
  0
VERTEX
  8
LAYER_1
 10
-22.8522
 20
20.8781
  0
VERTEX
  8
LAYER_1
 10
-22.3841
 20
22.4776
  0
SEQEND
  8
LAYER_1
  0
POLYLINE
  8
LAYER_1
 66
     1
 70
     1
  0
VERTEX
  8
LAYER_1
 10
29.9611
 20
22.4776
  0
VERTEX
  8
LAYER_1
 10
29.9611
 20
-27.5174
  0
VERTEX
  8
LAYER_1
 10
32.9611
 20
-27.5174
  0
VERTEX
  8
LAYER_1
 10
32.9611
 20
25.6935
  0
VERTEX
  8
LAYER_1
 10
37.9614
 20
25.6935
  0
VERTEX
  8
LAYER_1
 10
37.9614
 20
-35.0393
  0
VERTEX
  8
LAYER_1
 10
40.9614
 20
-35.0393
  0
VERTEX
  8
LAYER_1
 10
40.9614
 20
25.6935
  0
VERTEX
  8
LAYER_1
 10
45.9613
 20
25.6935
  0
VERTEX
  8
LAYER_1
 10
45.9613
 20
-37.2463
  0
VERTEX
  8
LAYER_1
 10
48.9613
 20
-37.2463
  0
VERTEX
  8
LAYER_1
 10
48.9613
 20
25.6935
  0
VERTEX
  8
LAYER_1
 10
53.9612
 20
25.6935
  0
VERTEX
  8
LAYER_1
 10
53.9612
 20
-35.0393
  0
VERTEX
  8
LAYER_1
 10
56.9613
 20
-35.0393
  0
VERTEX
  8
LAYER_1
 10
56.9613
 20
25.6935
  0
VERTEX
  8
LAYER_1
 10
61.9612
 20
25.6935
  0
VERTEX
  8
LAYER_1
 10
61.9612
 20
-27.5174
  0
VERTEX
  8
LAYER_1
 10
64.9616
 20
-27.5174
  0
VERTEX
  8
LAYER_1
 10
64.9616
 20
22.4776
  0
VERTEX
  8
LAYER_1
 10
65.4297
 20
20.8781
  0
VERTEX
  8
LAYER_1
 10
66.0248
 20
18.747
  0
VERTEX
  8
LAYER_1
 10
67.5495
 20
11.9436
  0
VERTEX
  8
LAYER_1
 10
68.8202
 20
4.7156
  0
VERTEX
  8
LAYER_1
 10
69.8232
 20
-2.8575
  0
VERTEX
  8
LAYER_1
 10
70.5478
 20
-10.6931
  0
VERTEX
  8
LAYER_1
 10
70.9856
 20
-18.7053
  0
VERTEX
  8
LAYER_1
 10
71.1327
 20
-26.8065
  0
VERTEX
  8
LAYER_1
 10
70.9856
 20
-34.9074
  0
VERTEX
  8
LAYER_1
 10
70.5478
 20
-42.9197
  0
VERTEX
  8
LAYER_1
 10
69.8232
 20
-50.7552
  0
VERTEX
  8
LAYER_1
 10
68.8202
 20
-58.3283
  0
VERTEX
  8
LAYER_1
 10
67.5495
 20
-65.5565
  0
VERTEX
  8
LAYER_1
 10
66.0248
 20
-72.3597
  0
VERTEX
  8
LAYER_1
 10
65.4297
 20
-74.4908
  0
VERTEX
  8
LAYER_1
 10
64.2077
 20
-78.6642
  0
VERTEX
  8
LAYER_1
 10
62.1337
 20
-84.4
  0
VERTEX
  8
LAYER_1
 10
61.3177
 20
-86.2285
  0
VERTEX
  8
LAYER_1
 10
59.7634
 20
-89.5051
  0
VERTEX
  8
LAYER_1
 10
58.4722
 20
-91.688
  0
VERTEX
  8
LAYER_1
 10
57.0456
 20
-93.9232
  0
VERTEX
  8
LAYER_1
 10
56.346
 20
-94.783
  0
VERTEX
  8
LAYER_1
 10
54.6643
 20
-96.6637
  0
VERTEX
  8
LAYER_1
 10
53.7175
 20
-97.6063
  0
VERTEX
  8
LAYER_1
 10
53.2737
 20
-97.9393
  0
VERTEX
  8
LAYER_1
 10
52.0799
 20
-98.714
  0
VERTEX
  8
LAYER_1
 10
51.023
 20
-99.2855
  0
VERTEX
  8
LAYER_1
 10
50.0606
 20
-99.6965
  0
VERTEX
  8
LAYER_1
 10
49.1621
 20
-99.9738
  0
VERTEX
  8
LAYER_1
 10
48.302
 20
-100.1343
  0
VERTEX
  8
LAYER_1
 10
47.4613
 20
-100.1866
  0
VERTEX
  8
LAYER_1
 10
46.6203
 20
-100.1343
  0
VERTEX
  8
LAYER_1
 10
45.7606
 20
-99.9738
  0
VERTEX
  8
LAYER_1
 10
44.8617
 20
-99.6965
  0
VERTEX
  8
LAYER_1
 10
43.8993
 20
-99.2855
  0
VERTEX
  8
LAYER_1
 10
42.8424
 20
-98.714
  0
VERTEX
  8
LAYER_1
 10
41.6493
 20
-97.9393
  0
VERTEX
  8
LAYER_1
 10
41.2052
 20
-97.6063
  0
VERTEX
  8
LAYER_1
 10
40.2583
 20
-96.6637
  0
VERTEX
  8
LAYER_1
 10
38.5763
 20
-94.783
  0
VERTEX
  8
LAYER_1
 10
37.8771
 20
-93.9232
  0
VERTEX
  8
LAYER_1
 10
36.4501
 20
-91.688
  0
VERTEX
  8
LAYER_1
 10
35.1593
 20
-89.5051
  0
VERTEX
  8
LAYER_1
 10
33.6053
 20
-86.2285
  0
VERTEX
  8
LAYER_1
 10
32.7886
 20
-84.4
  0
VERTEX
  8
LAYER_1
 10
30.715
 20
-78.6642
  0
VERTEX
  8
LAYER_1
 10
29.4929
 20
-74.4908
  0
VERTEX
  8
LAYER_1
 10
28.8974
 20
-72.3597
  0
VERTEX
  8
LAYER_1
 10
27.3727
 20
-65.5565
  0
VERTEX
  8
LAYER_1
 10
26.102
 20
-58.3283
  0
VERTEX
  8
LAYER_1
 10
25.0991
 20
-50.7552
  0
VERTEX
  8
LAYER_1
 10
24.3745
 20
-42.9197
  0
VERTEX
  8
LAYER_1
 10
23.9367
 20
-34.9074
  0
VERTEX
  8
LAYER_1
 10
23.7903
 20
-26.8065
  0
VERTEX
  8
LAYER_1
 10
23.9367
 20
-18.7053
  0
VERTEX
  8
LAYER_1
 10
24.3745
 20
-10.6931
  0
VERTEX
  8
LAYER_1
 10
25.0991
 20
-2.8575
  0
VERTEX
  8
LAYER_1
 10
26.102
 20
4.7156
  0
VERTEX
  8
LAYER_1
 10
27.3727
 20
11.9436
  0
VERTEX
  8
LAYER_1
 10
28.8974
 20
18.747
  0
VERTEX
  8
LAYER_1
 10
29.4929
 20
20.8781
  0
VERTEX
  8
LAYER_1
 10
29.9611
 20
22.4776
  0
SEQEND
  8
LAYER_1
  0
POLYLINE
  8
LAYER_1
 66
     1
 70
     1
  0
VERTEX
  8
LAYER_1
 10
175.5493
 20
-59.018
  0
VERTEX
  8
LAYER_1
 10
126.9788
 20
-59.018
  0
VERTEX
  8
LAYER_1
 10
126.9788
 20
-62.018
  0
VERTEX
  8
LAYER_1
 10
184.2453
 20
-62.018
  0
VERTEX
  8
LAYER_1
 10
185.6881
 20
-62.6615
  0
VERTEX
  8
LAYER_1
 10
188.9654
 20
-64.2158
  0
VERTEX
  8
LAYER_1
 10
191.1491
 20
-65.5069
  0
VERTEX
  8
LAYER_1
 10
193.3822
 20
-66.9335
  0
VERTEX
  8
LAYER_1
 10
193.488
 20
-67.0179
  0
VERTEX
  8
LAYER_1
 10
134.5001
 20
-67.0179
  0
VERTEX
  8
LAYER_1
 10
134.5001
 20
-70.0179
  0
VERTEX
  8
LAYER_1
 10
196.8253
 20
-70.0179
  0
VERTEX
  8
LAYER_1
 10
197.0652
 20
-70.2614
  0
VERTEX
  8
LAYER_1
 10
197.4003
 20
-70.7055
  0
VERTEX
  8
LAYER_1
 10
198.1729
 20
-71.8989
  0
VERTEX
  8
LAYER_1
 10
198.7444
 20
-72.9563
  0
VERTEX
  8
LAYER_1
 10
199.1572
 20
-73.9185
  0
VERTEX
  8
LAYER_1
 10
199.4323
 20
-74.8174
  0
VERTEX
  8
LAYER_1
 10
199.4711
 20
-75.0178
  0
VERTEX
  8
LAYER_1
 10
136.7049
 20
-75.0178
  0
VERTEX
  8
LAYER_1
 10
136.7049
 20
-78.0178
  0
VERTEX
  8
LAYER_1
 10
199.4711
 20
-78.0178
  0
VERTEX
  8
LAYER_1
 10
199.4323
 20
-78.2181
  0
VERTEX
  8
LAYER_1
 10
199.1572
 20
-79.117
  0
VERTEX
  8
LAYER_1
 10
198.7444
 20
-80.0798
  0
VERTEX
  8
LAYER_1
 10
198.1729
 20
-81.1368
  0
VERTEX
  8
LAYER_1
 10
197.4003
 20
-82.3302
  0
VERTEX
  8
LAYER_1
 10
197.0652
 20
-82.7743
  0
VERTEX
  8
LAYER_1
 10
196.8253
 20
-83.0179
  0
VERTEX
  8
LAYER_1
 10
134.5001
 20
-83.0179
  0
VERTEX
  8
LAYER_1
 10
134.5001
 20
-86.0179
  0
VERTEX
  8
LAYER_1
 10
193.488
 20
-86.0179
  0
VERTEX
  8
LAYER_1
 10
193.3822
 20
-86.102
  0
VERTEX
  8
LAYER_1
 10
191.1491
 20
-87.5292
  0
VERTEX
  8
LAYER_1
 10
188.9654
 20
-88.8199
  0
VERTEX
  8
LAYER_1
 10
185.6881
 20
-90.3742
  0
VERTEX
  8
LAYER_1
 10
184.2453
 20
-91.0176
  0
VERTEX
  8
LAYER_1
 10
126.9788
 20
-91.0176
  0
VERTEX
  8
LAYER_1
 10
126.9788
 20
-94.0176
  0
VERTEX
  8
LAYER_1
 10
175.5493
 20
-94.0176
  0
VERTEX
  8
LAYER_1
 10
173.9512
 20
-94.4862
  0
VERTEX
  8
LAYER_1
 10
171.8204
 20
-95.0817
  0
VERTEX
  8
LAYER_1
 10
165.0153
 20
-96.6061
  0
VERTEX
  8
LAYER_1
 10
157.7869
 20
-97.8768
  0
VERTEX
  8
LAYER_1
 10
150.2163
 20
-98.88
  0
VERTEX
  8
LAYER_1
 10
142.3776
 20
-99.6047
  0
VERTEX
  8
LAYER_1
 10
134.366
 20
-100.0426
  0
VERTEX
  8
LAYER_1
 10
126.2662
 20
-100.1889
  0
VERTEX
  8
LAYER_1
 10
118.1665
 20
-100.0426
  0
VERTEX
  8
LAYER_1
 10
110.1513
 20
-99.6047
  0
VERTEX
  8
LAYER_1
 10
102.3172
 20
-98.88
  0
VERTEX
  8
LAYER_1
 10
94.7441
 20
-97.8768
  0
VERTEX
  8
LAYER_1
 10
87.5161
 20
-96.6061
  0
VERTEX
  8
LAYER_1
 10
80.7127
 20
-95.0817
  0
VERTEX
  8
LAYER_1
 10
78.5816
 20
-94.4862
  0
VERTEX
  8
LAYER_1
 10
74.4086
 20
-93.2643
  0
VERTEX
  8
LAYER_1
 10
73.7662
 20
-93.0321
  0
VERTEX
  8
LAYER_1
 10
73.7662
 20
-60.0036
  0
VERTEX
  8
LAYER_1
 10
74.4086
 20
-59.7715
  0
VERTEX
  8
LAYER_1
 10
78.5816
 20
-58.5495
  0
VERTEX
  8
LAYER_1
 10
80.7127
 20
-57.954
  0
VERTEX
  8
LAYER_1
 10
87.5161
 20
-56.4296
  0
VERTEX
  8
LAYER_1
 10
94.7441
 20
-55.1589
  0
VERTEX
  8
LAYER_1
 10
102.3172
 20
-54.1556
  0
VERTEX
  8
LAYER_1
 10
110.1513
 20
-53.4314
  0
VERTEX
  8
LAYER_1
 10
118.1665
 20
-52.9932
  0
VERTEX
  8
LAYER_1
 10
126.2662
 20
-52.8468
  0
VERTEX
  8
LAYER_1
 10
134.366
 20
-52.9932
  0
VERTEX
  8
LAYER_1
 10
142.3776
 20
-53.4314
  0
VERTEX
  8
LAYER_1
 10
150.2163
 20
-54.1556
  0
VERTEX
  8
LAYER_1
 10
157.7869
 20
-55.1589
  0
VERTEX
  8
LAYER_1
 10
165.0153
 20
-56.4296
  0
VERTEX
  8
LAYER_1
 10
171.8204
 20
-57.954
  0
VERTEX
  8
LAYER_1
 10
173.9512
 20
-58.5495
  0
VERTEX
  8
LAYER_1
 10
175.5493
 20
-59.018
  0
SEQEND
  8
LAYER_1
  0
POLYLINE
  8
LAYER_1
 66
     1
 70
     1
  0
VERTEX
  8
LAYER_1
 10
208.9644
 20
1.5949
  0
VERTEX
  8
LAYER_1
 10
208.9644
 20
-46.9777
  0
VERTEX
  8
LAYER_1
 10
211.963
 20
-46.9777
  0
VERTEX
  8
LAYER_1
 10
211.963
 20
10.2912
  0
VERTEX
  8
LAYER_1
 10
212.6086
 20
11.733
  0
VERTEX
  8
LAYER_1
 10
214.1608
 20
15.01
  0
VERTEX
  8
LAYER_1
 10
215.452
 20
17.1926
  0
VERTEX
  8
LAYER_1
 10
216.8807
 20
19.4278
  0
VERTEX
  8
LAYER_1
 10
216.9619
 20
19.5315
  0
VERTEX
  8
LAYER_1
 10
216.9619
 20
-39.4557
  0
VERTEX
  8
LAYER_1
 10
219.964
 20
-39.4557
  0
VERTEX
  8
LAYER_1
 10
219.964
 20
22.8685
  0
VERTEX
  8
LAYER_1
 10
220.2074
 20
23.1108
  0
VERTEX
  8
LAYER_1
 10
220.6519
 20
23.4438
  0
VERTEX
  8
LAYER_1
 10
221.8443
 20
24.2185
  0
VERTEX
  8
LAYER_1
 10
222.9026
 20
24.7904
  0
VERTEX
  8
LAYER_1
 10
223.8622
 20
25.2014
  0
VERTEX
  8
LAYER_1
 10
224.7618
 20
25.4787
  0
VERTEX
  8
LAYER_1
 10
224.9629
 20
25.5157
  0
VERTEX
  8
LAYER_1
 10
224.9629
 20
-37.2488
  0
VERTEX
  8
LAYER_1
 10
227.965
 20
-37.2488
  0
VERTEX
  8
LAYER_1
 10
227.965
 20
25.5157
  0
VERTEX
  8
LAYER_1
 10
228.1626
 20
25.4787
  0
VERTEX
  8
LAYER_1
 10
229.0621
 20
25.2014
  0
VERTEX
  8
LAYER_1
 10
230.0252
 20
24.7904
  0
VERTEX
  8
LAYER_1
 10
231.0836
 20
24.2185
  0
VERTEX
  8
LAYER_1
 10
232.276
 20
23.4438
  0
VERTEX
  8
LAYER_1
 10
232.7205
 20
23.1108
  0
VERTEX
  8
LAYER_1
 10
232.9639
 20
22.8685
  0
VERTEX
  8
LAYER_1
 10
232.9639
 20
-39.4557
  0
VERTEX
  8
LAYER_1
 10
235.9625
 20
-39.4557
  0
VERTEX
  8
LAYER_1
 10
235.9625
 20
19.5315
  0
VERTEX
  8
LAYER_1
 10
236.0471
 20
19.4278
  0
VERTEX
  8
LAYER_1
 10
237.4759
 20
17.1926
  0
VERTEX
  8
LAYER_1
 10
238.7671
 20
15.01
  0
VERTEX
  8
LAYER_1
 10
240.3193
 20
11.733
  0
VERTEX
  8
LAYER_1
 10
240.9649
 20
10.2912
  0
VERTEX
  8
LAYER_1
 10
240.9649
 20
-46.9777
  0
VERTEX
  8
LAYER_1
 10
243.9635
 20
-46.9777
  0
VERTEX
  8
LAYER_1
 10
243.9635
 20
1.5949
  0
VERTEX
  8
LAYER_1
 10
244.4327
 20
-0.0046
  0
VERTEX
  8
LAYER_1
 10
245.0253
 20
-2.1357
  0
VERTEX
  8
LAYER_1
 10
246.5529
 20
-8.939
  0
VERTEX
  8
LAYER_1
 10
247.8229
 20
-16.1668
  0
VERTEX
  8
LAYER_1
 10
248.8248
 20
-23.7402
  0
VERTEX
  8
LAYER_1
 10
249.5515
 20
-31.5757
  0
VERTEX
  8
LAYER_1
 10
249.9889
 20
-39.588
  0
VERTEX
  8
LAYER_1
 10
250.1336
 20
-47.6889
  0
VERTEX
  8
LAYER_1
 10
249.9889
 20
-55.7901
  0
VERTEX
  8
LAYER_1
 10
249.5515
 20
-63.802
  0
VERTEX
  8
LAYER_1
 10
248.8248
 20
-71.6379
  0
VERTEX
  8
LAYER_1
 10
247.8229
 20
-79.211
  0
VERTEX
  8
LAYER_1
 10
246.5529
 20
-86.439
  0
VERTEX
  8
LAYER_1
 10
245.0253
 20
-93.2424
  0
VERTEX
  8
LAYER_1
 10
244.4327
 20
-95.3735
  0
VERTEX
  8
LAYER_1
 10
243.2085
 20
-99.5465
  0
VERTEX
  8
LAYER_1
 10
242.9792
 20
-100.1889
  0
VERTEX
  8
LAYER_1
 10
209.9486
 20
-100.1889
  0
VERTEX
  8
LAYER_1
 10
209.7158
 20
-99.5465
  0
VERTEX
  8
LAYER_1
 10
208.4952
 20
-95.3735
  0
VERTEX
  8
LAYER_1
 10
207.899
 20
-93.2424
  0
VERTEX
  8
LAYER_1
 10
206.375
 20
-86.439
  0
VERTEX
  8
LAYER_1
 10
205.105
 20
-79.211
  0
VERTEX
  8
LAYER_1
 10
204.0996
 20
-71.6379
  0
VERTEX
  8
LAYER_1
 10
203.3764
 20
-63.802
  0
VERTEX
  8
LAYER_1
 10
202.939
 20
-55.7901
  0
VERTEX
  8
LAYER_1
 10
202.7908
 20
-47.6889
  0
VERTEX
  8
LAYER_1
 10
202.939
 20
-39.588
  0
VERTEX
  8
LAYER_1
 10
203.3764
 20
-31.5757
  0
VERTEX
  8
LAYER_1
 10
204.0996
 20
-23.7402
  0
VERTEX
  8
LAYER_1
 10
205.105
 20
-16.1668
  0
VERTEX
  8
LAYER_1
 10
206.375
 20
-8.939
  0
VERTEX
  8
LAYER_1
 10
207.899
 20
-2.1357
  0
VERTEX
  8
LAYER_1
 10
208.4952
 20
-0.0046
  0
VERTEX
  8
LAYER_1
 10
208.9644
 20
1.5949
  0
SEQEND
  8
LAYER_1
  0
POLYLINE
  8
LAYER_1
 66
     1
 70
     1
  0
VERTEX
  8
LAYER_1
 10
163.9147
 20
-51.0455
  0
VERTEX
  8
LAYER_1
 10
162.2319
 20
-50.824
  0
VERTEX
  8
LAYER_1
 10
160.5139
 20
-50.1481
  0
VERTEX
  8
LAYER_1
 10
159.0816
 20
-49.2167
  0
VERTEX
  8
LAYER_1
 10
158.7147
 20
-48.9222
  0
VERTEX
  8
LAYER_1
 10
156.7886
 20
-46.7808
  0
VERTEX
  8
LAYER_1
 10
154.6754
 20
-43.8013
  0
VERTEX
  8
LAYER_1
 10
154.4849
 20
-43.4813
  0
VERTEX
  8
LAYER_1
 10
152.2871
 20
-38.8931
  0
VERTEX
  8
LAYER_1
 10
151.578
 20
-37.1764
  0
VERTEX
  8
LAYER_1
 10
149.5072
 20
-30.9489
  0
VERTEX
  8
LAYER_1
 10
149.3379
 20
-30.3735
  0
VERTEX
  8
LAYER_1
 10
147.6587
 20
-23.1454
  0
VERTEX
  8
LAYER_1
 10
146.3358
 20
-15.5723
  0
VERTEX
  8
LAYER_1
 10
146.1417
 20
-14.0081
  0
VERTEX
  8
LAYER_1
 10
145.4468
 20
-7.7364
  0
VERTEX
  8
LAYER_1
 10
144.9211
 20
0.2759
  0
VERTEX
  8
LAYER_1
 10
144.7447
 20
8.3767
  0
VERTEX
  8
LAYER_1
 10
144.9211
 20
16.4779
  0
VERTEX
  8
LAYER_1
 10
145.4468
 20
24.4898
  0
VERTEX
  8
LAYER_1
 10
146.1417
 20
30.7612
  0
VERTEX
  8
LAYER_1
 10
146.3358
 20
32.3254
  0
VERTEX
  8
LAYER_1
 10
146.4134
 20
32.7762
  0
VERTEX
  8
LAYER_1
 10
146.4134
 20
8.3767
  0
VERTEX
  8
LAYER_1
 10
149.412
 20
8.3767
  0
VERTEX
  8
LAYER_1
 10
149.412
 20
47.3855
  0
VERTEX
  8
LAYER_1
 10
149.5072
 20
47.7019
  0
VERTEX
  8
LAYER_1
 10
151.578
 20
53.9302
  0
VERTEX
  8
LAYER_1
 10
152.2871
 20
55.6465
  0
VERTEX
  8
LAYER_1
 10
154.4144
 20
60.0826
  0
VERTEX
  8
LAYER_1
 10
154.4144
 20
7.6659
  0
VERTEX
  8
LAYER_1
 10
157.413
 20
7.6659
  0
VERTEX
  8
LAYER_1
 10
157.413
 20
60.8764
  0
VERTEX
  8
LAYER_1
 10
162.4118
 20
60.8764
  0
VERTEX
  8
LAYER_1
 10
162.4118
 20
4.9159
  0
VERTEX
  8
LAYER_1
 10
165.414
 20
4.9159
  0
VERTEX
  8
LAYER_1
 10
165.414
 20
60.8764
  0
VERTEX
  8
LAYER_1
 10
170.4128
 20
60.8764
  0
VERTEX
  8
LAYER_1
 10
170.4128
 20
7.6659
  0
VERTEX
  8
LAYER_1
 10
173.4115
 20
7.6659
  0
VERTEX
  8
LAYER_1
 10
173.4115
 20
60.0826
  0
VERTEX
  8
LAYER_1
 10
175.5387
 20
55.6465
  0
VERTEX
  8
LAYER_1
 10
176.2478
 20
53.9302
  0
VERTEX
  8
LAYER_1
 10
178.3186
 20
47.7019
  0
VERTEX
  8
LAYER_1
 10
178.4138
 20
47.3855
  0
VERTEX
  8
LAYER_1
 10
178.4138
 20
8.3767
  0
VERTEX
  8
LAYER_1
 10
181.4125
 20
8.3767
  0
VERTEX
  8
LAYER_1
 10
181.4125
 20
32.7762
  0
VERTEX
  8
LAYER_1
 10
181.4936
 20
32.3254
  0
VERTEX
  8
LAYER_1
 10
181.6841
 20
30.7612
  0
VERTEX
  8
LAYER_1
 10
182.3791
 20
24.4898
  0
VERTEX
  8
LAYER_1
 10
191.2867
 20
25.0744
  0
VERTEX
  8
LAYER_1
 10
191.9429
 20
26.6629
  0
VERTEX
  8
LAYER_1
 10
193.5339
 20
28.7337
  0
VERTEX
  8
LAYER_1
 10
195.6047
 20
30.323
  0
VERTEX
  8
LAYER_1
 10
198.0142
 20
31.3224
  0
VERTEX
  8
LAYER_1
 10
200.6036
 20
31.6632
  0
VERTEX
  8
LAYER_1
 10
203.193
 20
31.3224
  0
VERTEX
  8
LAYER_1
 10
205.6024
 20
30.323
  0
VERTEX
  8
LAYER_1
 10
207.6768
 20
28.7337
  0
VERTEX
  8
LAYER_1
 10
209.2643
 20
26.6629
  0
VERTEX
  8
LAYER_1
 10
210.2626
 20
24.251
  0
VERTEX
  8
LAYER_1
 10
210.6048
 20
21.6627
  0
VERTEX
  8
LAYER_1
 10
210.2626
 20
19.0747
  0
VERTEX
  8
LAYER_1
 10
209.2643
 20
16.6631
  0
VERTEX
  8
LAYER_1
 10
207.6768
 20
14.5919
  0
VERTEX
  8
LAYER_1
 10
205.6024
 20
13.0027
  0
VERTEX
  8
LAYER_1
 10
203.193
 20
12.004
  0
VERTEX
  8
LAYER_1
 10
200.6036
 20
11.6632
  0
VERTEX
  8
LAYER_1
 10
198.0142
 20
12.004
  0
VERTEX
  8
LAYER_1
 10
195.6047
 20
13.0027
  0
VERTEX
  8
LAYER_1
 10
193.5339
 20
14.5919
  0
VERTEX
  8
LAYER_1
 10
191.9429
 20
16.6631
  0
VERTEX
  8
LAYER_1
 10
191.7806
 20
17.06
  0
VERTEX
  8
LAYER_1
 10
182.9047
 20
16.4779
  0
VERTEX
  8
LAYER_1
 10
183.0811
 20
8.3767
  0
VERTEX
  8
LAYER_1
 10
182.9047
 20
0.2759
  0
VERTEX
  8
LAYER_1
 10
182.3791
 20
-7.7364
  0
VERTEX
  8
LAYER_1
 10
181.6841
 20
-14.0081
  0
VERTEX
  8
LAYER_1
 10
181.4936
 20
-15.5723
  0
VERTEX
  8
LAYER_1
 10
180.1671
 20
-23.1454
  0
VERTEX
  8
LAYER_1
 10
178.4915
 20
-30.3735
  0
VERTEX
  8
LAYER_1
 10
178.3186
 20
-30.9489
  0
VERTEX
  8
LAYER_1
 10
176.2478
 20
-37.1764
  0
VERTEX
  8
LAYER_1
 10
175.5387
 20
-38.8931
  0
VERTEX
  8
LAYER_1
 10
173.3409
 20
-43.4813
  0
VERTEX
  8
LAYER_1
 10
173.1504
 20
-43.8013
  0
VERTEX
  8
LAYER_1
 10
171.0373
 20
-46.7808
  0
VERTEX
  8
LAYER_1
 10
169.1111
 20
-48.9222
  0
VERTEX
  8
LAYER_1
 10
168.7442
 20
-49.2167
  0
VERTEX
  8
LAYER_1
 10
167.3155
 20
-50.1481
  0
VERTEX
  8
LAYER_1
 10
165.5939
 20
-50.824
  0
VERTEX
  8
LAYER_1
 10
163.9147
 20
-51.0455
  0
SEQEND
  8
LAYER_1
  0
POLYLINE
  8
LAYER_1
 66
     1
 70
     1
  0
VERTEX
  8
LAYER_1
 10
198.0565
 20
23.1327
  0
VERTEX
  8
LAYER_1
 10
197.7531
 20
22.3957
  0
VERTEX
  8
LAYER_1
 10
197.6649
 20
21.6627
  0
VERTEX
  8
LAYER_1
 10
197.7637
 20
20.9021
  0
VERTEX
  8
LAYER_1
 10
198.0565
 20
20.193
  0
VERTEX
  8
LAYER_1
 10
198.5257
 20
19.5841
  0
VERTEX
  8
LAYER_1
 10
199.1325
 20
19.1174
  0
VERTEX
  8
LAYER_1
 10
199.8416
 20
18.8239
  0
VERTEX
  8
LAYER_1
 10
200.6036
 20
18.7237
  0
VERTEX
  8
LAYER_1
 10
201.3656
 20
18.8239
  0
VERTEX
  8
LAYER_1
 10
202.0746
 20
19.1174
  0
VERTEX
  8
LAYER_1
 10
202.6814
 20
19.5841
  0
VERTEX
  8
LAYER_1
 10
203.1506
 20
20.193
  0
VERTEX
  8
LAYER_1
 10
203.4434
 20
20.9021
  0
VERTEX
  8
LAYER_1
 10
203.5422
 20
21.6627
  0
VERTEX
  8
LAYER_1
 10
203.4434
 20
22.424
  0
VERTEX
  8
LAYER_1
 10
203.1506
 20
23.1327
  0
VERTEX
  8
LAYER_1
 10
202.6814
 20
23.7412
  0
VERTEX
  8
LAYER_1
 10
202.0746
 20
24.2087
  0
VERTEX
  8
LAYER_1
 10
201.3656
 20
24.5022
  0
VERTEX
  8
LAYER_1
 10
200.6036
 20
24.6024
  0
VERTEX
  8
LAYER_1
 10
199.8416
 20
24.5022
  0
VERTEX
  8
LAYER_1
 10
199.1325
 20
24.2087
  0
VERTEX
  8
LAYER_1
 10
198.5257
 20
23.7412
  0
VERTEX
  8
LAYER_1
 10
198.0565
 20
23.1327
  0
SEQEND
  8
LAYER_1
  0
POLYLINE
  8
LAYER_1
 66
     1
 70
     1
  0
VERTEX
  8
LAYER_1
 10
99.1725
 20
35.7882
  0
VERTEX
  8
LAYER_1
 10
99.1725
 20
11.3887
  0
VERTEX
  8
LAYER_1
 10
102.1726
 20
11.3887
  0
VERTEX
  8
LAYER_1
 10
102.1726
 20
50.3978
  0
VERTEX
  8
LAYER_1
 10
102.2661
 20
50.7139
  0
VERTEX
  8
LAYER_1
 10
104.3376
 20
56.9419
  0
VERTEX
  8
LAYER_1
 10
105.0466
 20
58.6581
  0
VERTEX
  8
LAYER_1
 10
107.1739
 20
63.0943
  0
VERTEX
  8
LAYER_1
 10
107.1739
 20
10.6775
  0
VERTEX
  8
LAYER_1
 10
110.1725
 20
10.6775
  0
VERTEX
  8
LAYER_1
 10
110.1725
 20
63.8884
  0
VERTEX
  8
LAYER_1
 10
115.1714
 20
63.8884
  0
VERTEX
  8
LAYER_1
 10
115.1714
 20
7.9276
  0
VERTEX
  8
LAYER_1
 10
118.1735
 20
7.9276
  0
VERTEX
  8
LAYER_1
 10
118.1735
 20
63.8884
  0
VERTEX
  8
LAYER_1
 10
123.1724
 20
63.8884
  0
VERTEX
  8
LAYER_1
 10
123.1724
 20
10.6775
  0
VERTEX
  8
LAYER_1
 10
126.171
 20
10.6775
  0
VERTEX
  8
LAYER_1
 10
126.171
 20
63.0943
  0
VERTEX
  8
LAYER_1
 10
128.2982
 20
58.6581
  0
VERTEX
  8
LAYER_1
 10
129.0073
 20
56.9419
  0
VERTEX
  8
LAYER_1
 10
131.0781
 20
50.7139
  0
VERTEX
  8
LAYER_1
 10
131.1734
 20
50.3978
  0
VERTEX
  8
LAYER_1
 10
131.1734
 20
11.3887
  0
VERTEX
  8
LAYER_1
 10
134.172
 20
11.3887
  0
VERTEX
  8
LAYER_1
 10
134.172
 20
35.7882
  0
VERTEX
  8
LAYER_1
 10
134.2531
 20
35.3374
  0
VERTEX
  8
LAYER_1
 10
134.4436
 20
33.7732
  0
VERTEX
  8
LAYER_1
 10
135.1386
 20
27.5018
  0
VERTEX
  8
LAYER_1
 10
135.6642
 20
19.4896
  0
VERTEX
  8
LAYER_1
 10
135.8406
 20
11.3887
  0
VERTEX
  8
LAYER_1
 10
135.6642
 20
3.2875
  0
VERTEX
  8
LAYER_1
 10
135.1386
 20
-4.7248
  0
VERTEX
  8
LAYER_1
 10
134.4436
 20
-10.9961
  0
VERTEX
  8
LAYER_1
 10
134.2531
 20
-12.5603
  0
VERTEX
  8
LAYER_1
 10
132.9267
 20
-20.1334
  0
VERTEX
  8
LAYER_1
 10
131.251
 20
-27.3615
  0
VERTEX
  8
LAYER_1
 10
131.0781
 20
-27.9368
  0
VERTEX
  8
LAYER_1
 10
129.0073
 20
-34.1648
  0
VERTEX
  8
LAYER_1
 10
128.2982
 20
-35.881
  0
VERTEX
  8
LAYER_1
 10
126.1004
 20
-40.4689
  0
VERTEX
  8
LAYER_1
 10
125.9099
 20
-40.7896
  0
VERTEX
  8
LAYER_1
 10
123.7968
 20
-43.7688
  0
VERTEX
  8
LAYER_1
 10
121.8706
 20
-45.9102
  0
VERTEX
  8
LAYER_1
 10
121.5037
 20
-46.2051
  0
VERTEX
  8
LAYER_1
 10
120.075
 20
-47.1361
  0
VERTEX
  8
LAYER_1
 10
118.3534
 20
-47.812
  0
VERTEX
  8
LAYER_1
 10
116.6742
 20
-48.0335
  0
VERTEX
  8
LAYER_1
 10
114.9915
 20
-47.812
  0
VERTEX
  8
LAYER_1
 10
113.2734
 20
-47.1361
  0
VERTEX
  8
LAYER_1
 10
111.8411
 20
-46.2051
  0
VERTEX
  8
LAYER_1
 10
111.4743
 20
-45.9102
  0
VERTEX
  8
LAYER_1
 10
109.5481
 20
-43.7688
  0
VERTEX
  8
LAYER_1
 10
107.435
 20
-40.7896
  0
VERTEX
  8
LAYER_1
 10
107.2445
 20
-40.4689
  0
VERTEX
  8
LAYER_1
 10
105.0466
 20
-35.881
  0
VERTEX
  8
LAYER_1
 10
104.3376
 20
-34.1648
  0
VERTEX
  8
LAYER_1
 10
102.2661
 20
-27.9368
  0
VERTEX
  8
LAYER_1
 10
102.096
 20
-27.3615
  0
VERTEX
  8
LAYER_1
 10
100.4182
 20
-20.1334
  0
VERTEX
  8
LAYER_1
 10
99.0935
 20
-12.5603
  0
VERTEX
  8
LAYER_1
 10
98.9027
 20
-10.9961
  0
VERTEX
  8
LAYER_1
 10
98.2063
 20
-4.7248
  0
VERTEX
  8
LAYER_1
 10
97.6803
 20
3.2875
  0
VERTEX
  8
LAYER_1
 10
97.5043
 20
11.3887
  0
VERTEX
  8
LAYER_1
 10
97.6803
 20
19.4896
  0
VERTEX
  8
LAYER_1
 10
88.8065
 20
20.072
  0
VERTEX
  8
LAYER_1
 10
88.6425
 20
19.6748
  0
VERTEX
  8
LAYER_1
 10
87.0529
 20
17.6036
  0
VERTEX
  8
LAYER_1
 10
84.9817
 20
16.0147
  0
VERTEX
  8
LAYER_1
 10
82.5701
 20
15.0156
  0
VERTEX
  8
LAYER_1
 10
79.9818
 20
14.6748
  0
VERTEX
  8
LAYER_1
 10
77.3935
 20
15.0156
  0
VERTEX
  8
LAYER_1
 10
74.9819
 20
16.0147
  0
VERTEX
  8
LAYER_1
 10
72.9107
 20
17.6036
  0
VERTEX
  8
LAYER_1
 10
71.3214
 20
19.6748
  0
VERTEX
  8
LAYER_1
 10
70.3224
 20
22.0867
  0
VERTEX
  8
LAYER_1
 10
69.9819
 20
24.6747
  0
VERTEX
  8
LAYER_1
 10
70.3224
 20
27.263
  0
VERTEX
  8
LAYER_1
 10
71.3214
 20
29.675
  0
VERTEX
  8
LAYER_1
 10
72.9107
 20
31.7458
  0
VERTEX
  8
LAYER_1
 10
74.9819
 20
33.335
  0
VERTEX
  8
LAYER_1
 10
77.3935
 20
34.3341
  0
VERTEX
  8
LAYER_1
 10
79.9818
 20
34.6749
  0
VERTEX
  8
LAYER_1
 10
82.5701
 20
34.3341
  0
VERTEX
  8
LAYER_1
 10
84.9817
 20
33.335
  0
VERTEX
  8
LAYER_1
 10
87.0529
 20
31.7458
  0
VERTEX
  8
LAYER_1
 10
88.6425
 20
29.675
  0
VERTEX
  8
LAYER_1
 10
89.3001
 20
28.0864
  0
VERTEX
  8
LAYER_1
 10
98.2063
 20
27.5018
  0
VERTEX
  8
LAYER_1
 10
98.9027
 20
33.7732
  0
VERTEX
  8
LAYER_1
 10
99.0935
 20
35.3374
  0
VERTEX
  8
LAYER_1
 10
99.1725
 20
35.7882
  0
SEQEND
  8
LAYER_1
  0
POLYLINE
  8
LAYER_1
 66
     1
 70
     1
  0
VERTEX
  8
LAYER_1
 10
82.5274
 20
26.1447
  0
VERTEX
  8
LAYER_1
 10
82.0604
 20
26.7536
  0
VERTEX
  8
LAYER_1
 10
81.4515
 20
27.2207
  0
VERTEX
  8
LAYER_1
 10
80.7427
 20
27.5142
  0
VERTEX
  8
LAYER_1
 10
79.9818
 20
27.6144
  0
VERTEX
  8
LAYER_1
 10
79.2208
 20
27.5142
  0
VERTEX
  8
LAYER_1
 10
78.5121
 20
27.2207
  0
VERTEX
  8
LAYER_1
 10
77.9036
 20
26.7536
  0
VERTEX
  8
LAYER_1
 10
77.4361
 20
26.1447
  0
VERTEX
  8
LAYER_1
 10
77.1423
 20
25.4356
  0
VERTEX
  8
LAYER_1
 10
77.0424
 20
24.6747
  0
VERTEX
  8
LAYER_1
 10
77.1423
 20
23.9141
  0
VERTEX
  8
LAYER_1
 10
77.4361
 20
23.205
  0
VERTEX
  8
LAYER_1
 10
77.9036
 20
22.5961
  0
VERTEX
  8
LAYER_1
 10
78.5121
 20
22.129
  0
VERTEX
  8
LAYER_1
 10
79.2208
 20
21.8355
  0
VERTEX
  8
LAYER_1
 10
79.9818
 20
21.7353
  0
VERTEX
  8
LAYER_1
 10
80.7427
 20
21.8355
  0
VERTEX
  8
LAYER_1
 10
81.4515
 20
22.129
  0
VERTEX
  8
LAYER_1
 10
82.0604
 20
22.5961
  0
VERTEX
  8
LAYER_1
 10
82.5274
 20
23.205
  0
VERTEX
  8
LAYER_1
 10
82.8216
 20
23.9141
  0
VERTEX
  8
LAYER_1
 10
82.9218
 20
24.6747
  0
VERTEX
  8
LAYER_1
 10
82.8329
 20
25.4078
  0
VERTEX
  8
LAYER_1
 10
82.5274
 20
26.1447
  0
SEQEND
  8
LAYER_1
  0
POLYLINE
  8
LAYER_1
 66
     1
 70
     1
  0
VERTEX
  8
LAYER_1
 10
-99.5458
 20
-12.264
  0
VERTEX
  8
LAYER_1
 10
-117.5646
 20
-12.264
  0
VERTEX
  8
LAYER_1
 10
-117.7928
 20
-11.9422
  0
VERTEX
  8
LAYER_1
 10
-117.9826
 20
-11.6216
  0
VERTEX
  8
LAYER_1
 10
-120.1801
 20
-7.0337
  0
VERTEX
  8
LAYER_1
 10
-120.8916
 20
-5.3174
  0
VERTEX
  8
LAYER_1
 10
-122.9617
 20
0.9109
  0
VERTEX
  8
LAYER_1
 10
-123.1321
 20
1.4862
  0
VERTEX
  8
LAYER_1
 10
-124.8099
 20
8.714
  0
VERTEX
  8
LAYER_1
 10
-126.1343
 20
16.2874
  0
VERTEX
  8
LAYER_1
 10
-126.3251
 20
17.8516
  0
VERTEX
  8
LAYER_1
 10
-127.0219
 20
24.1229
  0
VERTEX
  8
LAYER_1
 10
-127.5479
 20
32.1352
  0
VERTEX
  8
LAYER_1
 10
-127.7239
 20
40.2361
  0
VERTEX
  8
LAYER_1
 10
-127.5479
 20
48.3369
  0
VERTEX
  8
LAYER_1
 10
-127.0219
 20
56.3492
  0
VERTEX
  8
LAYER_1
 10
-126.3251
 20
62.6205
  0
VERTEX
  8
LAYER_1
 10
-126.1343
 20
64.1847
  0
VERTEX
  8
LAYER_1
 10
-126.0553
 20
64.6356
  0
VERTEX
  8
LAYER_1
 10
-126.0553
 20
40.2361
  0
VERTEX
  8
LAYER_1
 10
-123.0552
 20
40.2361
  0
VERTEX
  8
LAYER_1
 10
-123.0552
 20
79.2452
  0
VERTEX
  8
LAYER_1
 10
-122.9617
 20
79.5613
  0
VERTEX
  8
LAYER_1
 10
-120.8916
 20
85.7895
  0
VERTEX
  8
LAYER_1
 10
-120.1801
 20
87.5058
  0
VERTEX
  8
LAYER_1
 10
-118.0553
 20
91.9413
  0
VERTEX
  8
LAYER_1
 10
-118.0553
 20
40.9473
  0
VERTEX
  8
LAYER_1
 10
-115.0553
 20
40.9473
  0
VERTEX
  8
LAYER_1
 10
-115.0553
 20
96.0871
  0
VERTEX
  8
LAYER_1
 10
-113.7542
 20
97.5349
  0
VERTEX
  8
LAYER_1
 10
-113.387
 20
97.8299
  0
VERTEX
  8
LAYER_1
 10
-111.9561
 20
98.7605
  0
VERTEX
  8
LAYER_1
 10
-110.2371
 20
99.4368
  0
VERTEX
  8
LAYER_1
 10
-110.0554
 20
99.4607
  0
VERTEX
  8
LAYER_1
 10
-110.0554
 20
43.6972
  0
VERTEX
  8
LAYER_1
 10
-107.0553
 20
43.6972
  0
VERTEX
  8
LAYER_1
 10
-107.0553
 20
99.4607
  0
VERTEX
  8
LAYER_1
 10
-106.8733
 20
99.4368
  0
VERTEX
  8
LAYER_1
 10
-105.1546
 20
98.7605
  0
VERTEX
  8
LAYER_1
 10
-103.7237
 20
97.8299
  0
VERTEX
  8
LAYER_1
 10
-103.3568
 20
97.5349
  0
VERTEX
  8
LAYER_1
 10
-102.0554
 20
96.0871
  0
VERTEX
  8
LAYER_1
 10
-102.0554
 20
40.9473
  0
VERTEX
  8
LAYER_1
 10
-99.0551
 20
40.9473
  0
VERTEX
  8
LAYER_1
 10
-99.0551
 20
91.9413
  0
VERTEX
  8
LAYER_1
 10
-96.9306
 20
87.5058
  0
VERTEX
  8
LAYER_1
 10
-96.2194
 20
85.7895
  0
VERTEX
  8
LAYER_1
 10
-94.149
 20
79.5613
  0
VERTEX
  8
LAYER_1
 10
-94.0555
 20
79.2452
  0
VERTEX
  8
LAYER_1
 10
-94.0555
 20
40.2361
  0
VERTEX
  8
LAYER_1
 10
-91.0555
 20
40.2361
  0
VERTEX
  8
LAYER_1
 10
-91.0555
 20
64.6356
  0
VERTEX
  8
LAYER_1
 10
-90.9764
 20
64.1847
  0
VERTEX
  8
LAYER_1
 10
-90.7856
 20
62.6205
  0
VERTEX
  8
LAYER_1
 10
-90.0889
 20
56.3492
  0
VERTEX
  8
LAYER_1
 10
-89.5629
 20
48.3369
  0
VERTEX
  8
LAYER_1
 10
-89.3868
 20
40.2361
  0
VERTEX
  8
LAYER_1
 10
-89.5629
 20
32.1352
  0
VERTEX
  8
LAYER_1
 10
-90.0889
 20
24.1229
  0
VERTEX
  8
LAYER_1
 10
-90.7856
 20
17.8516
  0
VERTEX
  8
LAYER_1
 10
-90.9764
 20
16.2874
  0
VERTEX
  8
LAYER_1
 10
-92.3004
 20
8.714
  0
VERTEX
  8
LAYER_1
 10
-93.9786
 20
1.4862
  0
VERTEX
  8
LAYER_1
 10
-94.149
 20
0.9109
  0
VERTEX
  8
LAYER_1
 10
-96.2194
 20
-5.3174
  0
VERTEX
  8
LAYER_1
 10
-96.9306
 20
-7.0337
  0
VERTEX
  8
LAYER_1
 10
-99.1281
 20
-11.6216
  0
VERTEX
  8
LAYER_1
 10
-99.3175
 20
-11.9422
  0
VERTEX
  8
LAYER_1
 10
-99.5458
 20
-12.264
  0
SEQEND
  8
LAYER_1
  0
POLYLINE
  8
LAYER_1
 66
     1
 70
     1
  0
VERTEX
  8
LAYER_1
 10
-248.2748
 20
65.5193
  0
VERTEX
  8
LAYER_1
 10
-248.2748
 20
41.1194
  0
VERTEX
  8
LAYER_1
 10
-245.2748
 20
41.1194
  0
VERTEX
  8
LAYER_1
 10
-245.2748
 20
80.1285
  0
VERTEX
  8
LAYER_1
 10
-245.1813
 20
80.445
  0
VERTEX
  8
LAYER_1
 10
-243.1107
 20
86.6729
  0
VERTEX
  8
LAYER_1
 10
-242.3993
 20
88.3892
  0
VERTEX
  8
LAYER_1
 10
-240.2749
 20
92.8253
  0
VERTEX
  8
LAYER_1
 10
-240.2749
 20
41.8306
  0
VERTEX
  8
LAYER_1
 10
-237.2747
 20
41.8306
  0
VERTEX
  8
LAYER_1
 10
-237.2747
 20
96.9708
  0
VERTEX
  8
LAYER_1
 10
-235.9733
 20
98.4183
  0
VERTEX
  8
LAYER_1
 10
-235.6061
 20
98.7132
  0
VERTEX
  8
LAYER_1
 10
-234.1757
 20
99.6442
  0
VERTEX
  8
LAYER_1
 10
-232.4562
 20
100.3201
  0
VERTEX
  8
LAYER_1
 10
-232.2745
 20
100.3441
  0
VERTEX
  8
LAYER_1
 10
-232.2745
 20
44.5805
  0
VERTEX
  8
LAYER_1
 10
-229.2744
 20
44.5805
  0
VERTEX
  8
LAYER_1
 10
-229.2744
 20
100.3441
  0
VERTEX
  8
LAYER_1
 10
-229.0928
 20
100.3201
  0
VERTEX
  8
LAYER_1
 10
-227.3737
 20
99.6442
  0
VERTEX
  8
LAYER_1
 10
-225.9429
 20
98.7132
  0
VERTEX
  8
LAYER_1
 10
-225.5759
 20
98.4183
  0
VERTEX
  8
LAYER_1
 10
-224.2746
 20
96.9708
  0
VERTEX
  8
LAYER_1
 10
-224.2746
 20
41.8306
  0
VERTEX
  8
LAYER_1
 10
-221.2745
 20
41.8306
  0
VERTEX
  8
LAYER_1
 10
-221.2745
 20
92.8253
  0
VERTEX
  8
LAYER_1
 10
-219.1501
 20
88.3892
  0
VERTEX
  8
LAYER_1
 10
-218.4385
 20
86.6729
  0
VERTEX
  8
LAYER_1
 10
-216.3681
 20
80.445
  0
VERTEX
  8
LAYER_1
 10
-216.2747
 20
80.1285
  0
VERTEX
  8
LAYER_1
 10
-216.2747
 20
41.1194
  0
VERTEX
  8
LAYER_1
 10
-213.2746
 20
41.1194
  0
VERTEX
  8
LAYER_1
 10
-213.2746
 20
65.5193
  0
VERTEX
  8
LAYER_1
 10
-213.196
 20
65.0684
  0
VERTEX
  8
LAYER_1
 10
-213.0047
 20
63.5039
  0
VERTEX
  8
LAYER_1
 10
-212.3084
 20
57.2325
  0
VERTEX
  8
LAYER_1
 10
-211.7824
 20
49.2206
  0
VERTEX
  8
LAYER_1
 10
-211.6063
 20
41.1194
  0
VERTEX
  8
LAYER_1
 10
-211.7824
 20
33.0186
  0
VERTEX
  8
LAYER_1
 10
-212.3084
 20
25.0063
  0
VERTEX
  8
LAYER_1
 10
-213.0047
 20
18.735
  0
VERTEX
  8
LAYER_1
 10
-213.196
 20
17.1707
  0
VERTEX
  8
LAYER_1
 10
-214.5203
 20
9.5973
  0
VERTEX
  8
LAYER_1
 10
-216.1981
 20
2.3696
  0
VERTEX
  8
LAYER_1
 10
-216.3681
 20
1.7942
  0
VERTEX
  8
LAYER_1
 10
-218.4385
 20
-4.4337
  0
VERTEX
  8
LAYER_1
 10
-219.1501
 20
-6.15
  0
VERTEX
  8
LAYER_1
 10
-221.3475
 20
-10.7382
  0
VERTEX
  8
LAYER_1
 10
-221.537
 20
-11.0585
  0
VERTEX
  8
LAYER_1
 10
-221.7652
 20
-11.3806
  0
VERTEX
  8
LAYER_1
 10
-239.784
 20
-11.3806
  0
VERTEX
  8
LAYER_1
 10
-240.0124
 20
-11.0585
  0
VERTEX
  8
LAYER_1
 10
-240.2017
 20
-10.7382
  0
VERTEX
  8
LAYER_1
 10
-242.3993
 20
-6.15
  0
VERTEX
  8
LAYER_1
 10
-243.1107
 20
-4.4337
  0
VERTEX
  8
LAYER_1
 10
-245.1813
 20
1.7942
  0
VERTEX
  8
LAYER_1
 10
-245.3513
 20
2.3696
  0
VERTEX
  8
LAYER_1
 10
-247.029
 20
9.5973
  0
VERTEX
  8
LAYER_1
 10
-248.3535
 20
17.1707
  0
VERTEX
  8
LAYER_1
 10
-248.5446
 20
18.735
  0
VERTEX
  8
LAYER_1
 10
-249.2411
 20
25.0063
  0
VERTEX
  8
LAYER_1
 10
-249.7669
 20
33.0186
  0
VERTEX
  8
LAYER_1
 10
-249.9431
 20
41.1194
  0
VERTEX
  8
LAYER_1
 10
-249.7669
 20
49.2206
  0
VERTEX
  8
LAYER_1
 10
-249.2411
 20
57.2325
  0
VERTEX
  8
LAYER_1
 10
-248.5446
 20
63.5039
  0
VERTEX
  8
LAYER_1
 10
-248.3535
 20
65.0684
  0
VERTEX
  8
LAYER_1
 10
-248.2748
 20
65.5193
  0
SEQEND
  8
LAYER_1
  0
POLYLINE
  8
LAYER_1
 66
     1
 70
     1
  0
VERTEX
  8
LAYER_1
 10
-213.1988
 20
-81.8173
  0
VERTEX
  8
LAYER_1
 10
-213.2997
 20
-83.7377
  0
VERTEX
  8
LAYER_1
 10
-213.6002
 20
-85.6372
  0
VERTEX
  8
LAYER_1
 10
-214.098
 20
-87.4945
  0
VERTEX
  8
LAYER_1
 10
-214.7874
 20
-89.2899
  0
VERTEX
  8
LAYER_1
 10
-215.6601
 20
-91.0033
  0
VERTEX
  8
LAYER_1
 10
-216.7074
 20
-92.6157
  0
VERTEX
  8
LAYER_1
 10
-217.9176
 20
-94.1102
  0
VERTEX
  8
LAYER_1
 10
-219.2774
 20
-95.4701
  0
VERTEX
  8
LAYER_1
 10
-220.7718
 20
-96.6801
  0
VERTEX
  8
LAYER_1
 10
-222.3844
 20
-97.7276
  0
VERTEX
  8
LAYER_1
 10
-224.0978
 20
-98.6007
  0
VERTEX
  8
LAYER_1
 10
-225.8931
 20
-99.2897
  0
VERTEX
  8
LAYER_1
 10
-227.7504
 20
-99.7873
  0
VERTEX
  8
LAYER_1
 10
-229.6498
 20
-100.0884
  0
VERTEX
  8
LAYER_1
 10
-231.5703
 20
-100.1889
  0
VERTEX
  8
LAYER_1
 10
-233.4905
 20
-100.0884
  0
VERTEX
  8
LAYER_1
 10
-235.3899
 20
-99.7873
  0
VERTEX
  8
LAYER_1
 10
-237.2472
 20
-99.2897
  0
VERTEX
  8
LAYER_1
 10
-239.0425
 20
-98.6007
  0
VERTEX
  8
LAYER_1
 10
-240.7561
 20
-97.7276
  0
VERTEX
  8
LAYER_1
 10
-242.3685
 20
-96.6801
  0
VERTEX
  8
LAYER_1
 10
-243.8633
 20
-95.4701
  0
VERTEX
  8
LAYER_1
 10
-245.2228
 20
-94.1102
  0
VERTEX
  8
LAYER_1
 10
-246.4329
 20
-92.6157
  0
VERTEX
  8
LAYER_1
 10
-247.4804
 20
-91.0033
  0
VERTEX
  8
LAYER_1
 10
-248.3535
 20
-89.2899
  0
VERTEX
  8
LAYER_1
 10
-249.0424
 20
-87.4945
  0
VERTEX
  8
LAYER_1
 10
-249.5401
 20
-85.6372
  0
VERTEX
  8
LAYER_1
 10
-249.8411
 20
-83.7377
  0
VERTEX
  8
LAYER_1
 10
-249.9417
 20
-81.8173
  0
VERTEX
  8
LAYER_1
 10
-249.8411
 20
-79.8972
  0
VERTEX
  8
LAYER_1
 10
-249.5401
 20
-77.9978
  0
VERTEX
  8
LAYER_1
 10
-249.0424
 20
-76.1404
  0
VERTEX
  8
LAYER_1
 10
-248.3535
 20
-74.345
  0
VERTEX
  8
LAYER_1
 10
-247.4804
 20
-72.6317
  0
VERTEX
  8
LAYER_1
 10
-246.4329
 20
-71.0192
  0
VERTEX
  8
LAYER_1
 10
-245.2228
 20
-69.5248
  0
VERTEX
  8
LAYER_1
 10
-243.8633
 20
-68.1648
  0
VERTEX
  8
LAYER_1
 10
-242.3685
 20
-66.9548
  0
VERTEX
  8
LAYER_1
 10
-240.7561
 20
-65.9074
  0
VERTEX
  8
LAYER_1
 10
-239.0425
 20
-65.0342
  0
VERTEX
  8
LAYER_1
 10
-237.2472
 20
-64.3453
  0
VERTEX
  8
LAYER_1
 10
-235.3899
 20
-63.8475
  0
VERTEX
  8
LAYER_1
 10
-233.4905
 20
-63.5466
  0
VERTEX
  8
LAYER_1
 10
-231.5703
 20
-63.446
  0
VERTEX
  8
LAYER_1
 10
-229.6498
 20
-63.5466
  0
VERTEX
  8
LAYER_1
 10
-227.7504
 20
-63.8475
  0
VERTEX
  8
LAYER_1
 10
-225.8931
 20
-64.3453
  0
VERTEX
  8
LAYER_1
 10
-224.0978
 20
-65.0342
  0
VERTEX
  8
LAYER_1
 10
-222.3844
 20
-65.9074
  0
VERTEX
  8
LAYER_1
 10
-220.7718
 20
-66.9548
  0
VERTEX
  8
LAYER_1
 10
-219.2774
 20
-68.1648
  0
VERTEX
  8
LAYER_1
 10
-217.9176
 20
-69.5248
  0
VERTEX
  8
LAYER_1
 10
-216.7074
 20
-71.0192
  0
VERTEX
  8
LAYER_1
 10
-215.6601
 20
-72.6317
  0
VERTEX
  8
LAYER_1
 10
-214.7874
 20
-74.345
  0
VERTEX
  8
LAYER_1
 10
-214.098
 20
-76.1404
  0
VERTEX
  8
LAYER_1
 10
-213.6002
 20
-77.9978
  0
VERTEX
  8
LAYER_1
 10
-213.2997
 20
-79.8972
  0
VERTEX
  8
LAYER_1
 10
-213.1988
 20
-81.8173
  0
SEQEND
  8
LAYER_1
  0
POLYLINE
  8
LAYER_1
 66
     1
 70
     1
  0
VERTEX
  8
LAYER_1
 10
-230.0704
 20
-80.3176
  0
VERTEX
  8
LAYER_1
 10
-233.0704
 20
-80.3176
  0
VERTEX
  8
LAYER_1
 10
-233.0704
 20
-83.3173
  0
VERTEX
  8
LAYER_1
 10
-230.0704
 20
-83.3173
  0
VERTEX
  8
LAYER_1
 10
-230.0704
 20
-80.3176
  0
SEQEND
  8
LAYER_1
  0
POLYLINE
  8
LAYER_1
 66
     1
 70
     1
  0
VERTEX
  8
LAYER_1
 10
-216.1988
 20
-80.3176
  0
VERTEX
  8
LAYER_1
 10
-219.1989
 20
-80.3176
  0
VERTEX
  8
LAYER_1
 10
-219.1989
 20
-83.3173
  0
VERTEX
  8
LAYER_1
 10
-216.1988
 20
-83.3173
  0
VERTEX
  8
LAYER_1
 10
-216.1988
 20
-80.3176
  0
SEQEND
  8
LAYER_1
  0
POLYLINE
  8
LAYER_1
 66
     1
 70
     1
  0
VERTEX
  8
LAYER_1
 10
-243.9416
 20
-80.3176
  0
VERTEX
  8
LAYER_1
 10
-246.9417
 20
-80.3176
  0
VERTEX
  8
LAYER_1
 10
-246.9417
 20
-83.3173
  0
VERTEX
  8
LAYER_1
 10
-243.9416
 20
-83.3173
  0
VERTEX
  8
LAYER_1
 10
-243.9416
 20
-80.3176
  0
SEQEND
  8
LAYER_1
  0
POLYLINE
  8
LAYER_1
 66
     1
 70
     1
  0
VERTEX
  8
LAYER_1
 10
-146.1523
 20
65.5355
  0
VERTEX
  8
LAYER_1
 10
-146.1142
 20
66.6658
  0
VERTEX
  8
LAYER_1
 10
-145.9985
 20
67.7838
  0
VERTEX
  8
LAYER_1
 10
-145.808
 20
68.8774
  0
VERTEX
  8
LAYER_1
 10
-145.5441
 20
69.934
  0
VERTEX
  8
LAYER_1
 10
-145.2097
 20
70.9425
  0
VERTEX
  8
LAYER_1
 10
-144.8086
 20
71.8919
  0
VERTEX
  8
LAYER_1
 10
-144.3454
 20
72.7717
  0
VERTEX
  8
LAYER_1
 10
-143.8243
 20
73.5721
  0
VERTEX
  8
LAYER_1
 10
-143.2521
 20
74.2844
  0
VERTEX
  8
LAYER_1
 10
-142.6344
 20
74.9011
  0
VERTEX
  8
LAYER_1
 10
-141.9786
 20
75.4147
  0
VERTEX
  8
LAYER_1
 10
-141.2907
 20
75.8204
  0
VERTEX
  8
LAYER_1
 10
-140.5795
 20
76.1136
  0
VERTEX
  8
LAYER_1
 10
-139.8517
 20
76.2907
  0
VERTEX
  8
LAYER_1
 10
-139.1165
 20
76.3499
  0
VERTEX
  8
LAYER_1
 10
-138.381
 20
76.2907
  0
VERTEX
  8
LAYER_1
 10
-137.6539
 20
76.1136
  0
VERTEX
  8
LAYER_1
 10
-136.942
 20
75.8204
  0
VERTEX
  8
LAYER_1
 10
-136.2544
 20
75.4147
  0
VERTEX
  8
LAYER_1
 10
-135.5982
 20
74.9011
  0
VERTEX
  8
LAYER_1
 10
-134.9809
 20
74.2844
  0
VERTEX
  8
LAYER_1
 10
-134.4083
 20
73.5721
  0
VERTEX
  8
LAYER_1
 10
-133.888
 20
72.7717
  0
VERTEX
  8
LAYER_1
 10
-133.4244
 20
71.8919
  0
VERTEX
  8
LAYER_1
 10
-133.023
 20
70.9425
  0
VERTEX
  8
LAYER_1
 10
-132.6885
 20
69.934
  0
VERTEX
  8
LAYER_1
 10
-132.4247
 20
68.8774
  0
VERTEX
  8
LAYER_1
 10
-132.2342
 20
67.7838
  0
VERTEX
  8
LAYER_1
 10
-132.1188
 20
66.6658
  0
VERTEX
  8
LAYER_1
 10
-132.0807
 20
65.5355
  0
VERTEX
  8
LAYER_1
 10
-131.91
 20
63.155
  0
VERTEX
  8
LAYER_1
 10
-131.856
 20
60.7688
  0
VERTEX
  8
LAYER_1
 10
-131.9188
 20
58.3829
  0
VERTEX
  8
LAYER_1
 10
-132.0976
 20
56.0031
  0
VERTEX
  8
LAYER_1
 10
-132.3929
 20
53.6349
  0
VERTEX
  8
LAYER_1
 10
-132.8039
 20
51.2836
  0
VERTEX
  8
LAYER_1
 10
-133.3292
 20
48.9557
  0
VERTEX
  8
LAYER_1
 10
-133.967
 20
46.6559
  0
VERTEX
  8
LAYER_1
 10
-134.717
 20
44.39
  0
VERTEX
  8
LAYER_1
 10
-135.5764
 20
42.1636
  0
VERTEX
  8
LAYER_1
 10
-136.3197
 20
40.4872
  0
VERTEX
  8
LAYER_1
 10
-136.1775
 20
40.3948
  0
VERTEX
  8
LAYER_1
 10
-135.7708
 20
40.0653
  0
VERTEX
  8
LAYER_1
 10
-135.4007
 20
39.6953
  0
VERTEX
  8
LAYER_1
 10
-135.0712
 20
39.2885
  0
VERTEX
  8
LAYER_1
 10
-134.7862
 20
38.8496
  0
VERTEX
  8
LAYER_1
 10
-134.5487
 20
38.3833
  0
VERTEX
  8
LAYER_1
 10
-134.3611
 20
37.8947
  0
VERTEX
  8
LAYER_1
 10
-134.2256
 20
37.3891
  0
VERTEX
  8
LAYER_1
 10
-134.1437
 20
36.8723
  0
VERTEX
  8
LAYER_1
 10
-134.1166
 20
36.3499
  0
VERTEX
  8
LAYER_1
 10
-134.1437
 20
35.827
  0
VERTEX
  8
LAYER_1
 10
-134.2256
 20
35.3102
  0
VERTEX
  8
LAYER_1
 10
-134.3611
 20
34.8047
  0
VERTEX
  8
LAYER_1
 10
-134.5487
 20
34.3161
  0
VERTEX
  8
LAYER_1
 10
-134.7862
 20
33.8497
  0
VERTEX
  8
LAYER_1
 10
-135.0712
 20
33.4109
  0
VERTEX
  8
LAYER_1
 10
-135.4007
 20
33.0041
  0
VERTEX
  8
LAYER_1
 10
-135.7708
 20
32.6341
  0
VERTEX
  8
LAYER_1
 10
-136.1775
 20
32.3046
  0
VERTEX
  8
LAYER_1
 10
-136.3197
 20
32.2125
  0
VERTEX
  8
LAYER_1
 10
-135.5764
 20
30.5361
  0
VERTEX
  8
LAYER_1
 10
-134.717
 20
28.3093
  0
VERTEX
  8
LAYER_1
 10
-133.967
 20
26.0438
  0
VERTEX
  8
LAYER_1
 10
-133.3292
 20
23.7441
  0
VERTEX
  8
LAYER_1
 10
-132.8039
 20
21.4157
  0
VERTEX
  8
LAYER_1
 10
-132.3929
 20
19.0648
  0
VERTEX
  8
LAYER_1
 10
-132.0976
 20
16.6963
  0
VERTEX
  8
LAYER_1
 10
-131.9188
 20
14.3164
  0
VERTEX
  8
LAYER_1
 10
-131.856
 20
11.9306
  0
VERTEX
  8
LAYER_1
 10
-131.91
 20
9.5447
  0
VERTEX
  8
LAYER_1
 10
-132.0807
 20
7.1642
  0
VERTEX
  8
LAYER_1
 10
-132.1188
 20
6.0335
  0
VERTEX
  8
LAYER_1
 10
-132.2342
 20
4.9156
  0
VERTEX
  8
LAYER_1
 10
-132.4247
 20
3.8223
  0
VERTEX
  8
LAYER_1
 10
-132.6885
 20
2.7654
  0
VERTEX
  8
LAYER_1
 10
-133.023
 20
1.7568
  0
VERTEX
  8
LAYER_1
 10
-133.4244
 20
0.8075
  0
VERTEX
  8
LAYER_1
 10
-133.888
 20
-0.072
  0
VERTEX
  8
LAYER_1
 10
-134.4083
 20
-0.8724
  0
VERTEX
  8
LAYER_1
 10
-134.9809
 20
-1.585
  0
VERTEX
  8
LAYER_1
 10
-135.5982
 20
-2.2013
  0
VERTEX
  8
LAYER_1
 10
-136.2544
 20
-2.7153
  0
VERTEX
  8
LAYER_1
 10
-136.942
 20
-3.121
  0
VERTEX
  8
LAYER_1
 10
-137.6539
 20
-3.4138
  0
VERTEX
  8
LAYER_1
 10
-138.381
 20
-3.5909
  0
VERTEX
  8
LAYER_1
 10
-139.1165
 20
-3.6502
  0
VERTEX
  8
LAYER_1
 10
-139.8517
 20
-3.5909
  0
VERTEX
  8
LAYER_1
 10
-140.5795
 20
-3.4138
  0
VERTEX
  8
LAYER_1
 10
-141.2907
 20
-3.121
  0
VERTEX
  8
LAYER_1
 10
-141.9786
 20
-2.7153
  0
VERTEX
  8
LAYER_1
 10
-142.6344
 20
-2.2013
  0
VERTEX
  8
LAYER_1
 10
-143.2521
 20
-1.585
  0
VERTEX
  8
LAYER_1
 10
-143.8243
 20
-0.8724
  0
VERTEX
  8
LAYER_1
 10
-144.3454
 20
-0.072
  0
VERTEX
  8
LAYER_1
 10
-144.8086
 20
0.8075
  0
VERTEX
  8
LAYER_1
 10
-145.2097
 20
1.7568
  0
VERTEX
  8
LAYER_1
 10
-145.5441
 20
2.7654
  0
VERTEX
  8
LAYER_1
 10
-145.808
 20
3.8223
  0
VERTEX
  8
LAYER_1
 10
-145.9985
 20
4.9156
  0
VERTEX
  8
LAYER_1
 10
-146.1142
 20
6.0335
  0
VERTEX
  8
LAYER_1
 10
-146.1523
 20
7.1642
  0
VERTEX
  8
LAYER_1
 10
-146.3227
 20
9.5447
  0
VERTEX
  8
LAYER_1
 10
-146.377
 20
11.9306
  0
VERTEX
  8
LAYER_1
 10
-146.3146
 20
14.3164
  0
VERTEX
  8
LAYER_1
 10
-146.135
 20
16.6963
  0
VERTEX
  8
LAYER_1
 10
-145.8401
 20
19.0648
  0
VERTEX
  8
LAYER_1
 10
-145.4291
 20
21.4157
  0
VERTEX
  8
LAYER_1
 10
-144.9042
 20
23.7441
  0
VERTEX
  8
LAYER_1
 10
-144.266
 20
26.0438
  0
VERTEX
  8
LAYER_1
 10
-143.516
 20
28.3093
  0
VERTEX
  8
LAYER_1
 10
-142.657
 20
30.5361
  0
VERTEX
  8
LAYER_1
 10
-141.9137
 20
32.2125
  0
VERTEX
  8
LAYER_1
 10
-142.0555
 20
32.3046
  0
VERTEX
  8
LAYER_1
 10
-142.4619
 20
32.6341
  0
VERTEX
  8
LAYER_1
 10
-142.8323
 20
33.0041
  0
VERTEX
  8
LAYER_1
 10
-143.1614
 20
33.4109
  0
VERTEX
  8
LAYER_1
 10
-143.4465
 20
33.8497
  0
VERTEX
  8
LAYER_1
 10
-143.6846
 20
34.3161
  0
VERTEX
  8
LAYER_1
 10
-143.8716
 20
34.8047
  0
VERTEX
  8
LAYER_1
 10
-144.0071
 20
35.3102
  0
VERTEX
  8
LAYER_1
 10
-144.0889
 20
35.827
  0
VERTEX
  8
LAYER_1
 10
-144.1168
 20
36.3499
  0
VERTEX
  8
LAYER_1
 10
-144.0889
 20
36.8723
  0
VERTEX
  8
LAYER_1
 10
-144.0071
 20
37.3891
  0
VERTEX
  8
LAYER_1
 10
-143.8716
 20
37.8947
  0
VERTEX
  8
LAYER_1
 10
-143.6846
 20
38.3833
  0
VERTEX
  8
LAYER_1
 10
-143.4465
 20
38.8496
  0
VERTEX
  8
LAYER_1
 10
-143.1614
 20
39.2885
  0
VERTEX
  8
LAYER_1
 10
-142.8323
 20
39.6953
  0
VERTEX
  8
LAYER_1
 10
-142.4619
 20
40.0653
  0
VERTEX
  8
LAYER_1
 10
-142.0555
 20
40.3948
  0
VERTEX
  8
LAYER_1
 10
-141.9137
 20
40.4872
  0
VERTEX
  8
LAYER_1
 10
-142.657
 20
42.1636
  0
VERTEX
  8
LAYER_1
 10
-143.516
 20
44.39
  0
VERTEX
  8
LAYER_1
 10
-144.266
 20
46.6559
  0
VERTEX
  8
LAYER_1
 10
-144.9042
 20
48.9557
  0
VERTEX
  8
LAYER_1
 10
-145.4291
 20
51.2836
  0
VERTEX
  8
LAYER_1
 10
-145.8401
 20
53.6349
  0
VERTEX
  8
LAYER_1
 10
-146.135
 20
56.0031
  0
VERTEX
  8
LAYER_1
 10
-146.3146
 20
58.3829
  0
VERTEX
  8
LAYER_1
 10
-146.377
 20
60.7688
  0
VERTEX
  8
LAYER_1
 10
-146.3227
 20
63.155
  0
VERTEX
  8
LAYER_1
 10
-146.1523
 20
65.5355
  0
SEQEND
  8
LAYER_1
  0
POLYLINE
  8
LAYER_1
 66
     1
 70
     1
  0
VERTEX
  8
LAYER_1
 10
-138.0557
 20
34.5126
  0
VERTEX
  8
LAYER_1
 10
-137.6168
 20
34.8498
  0
VERTEX
  8
LAYER_1
 10
-137.2796
 20
35.2891
  0
VERTEX
  8
LAYER_1
 10
-137.0672
 20
35.8006
  0
VERTEX
  8
LAYER_1
 10
-136.9949
 20
36.3499
  0
VERTEX
  8
LAYER_1
 10
-137.0672
 20
36.8988
  0
VERTEX
  8
LAYER_1
 10
-137.2796
 20
37.4103
  0
VERTEX
  8
LAYER_1
 10
-137.6168
 20
37.8499
  0
VERTEX
  8
LAYER_1
 10
-138.0557
 20
38.1868
  0
VERTEX
  8
LAYER_1
 10
-138.5672
 20
38.3988
  0
VERTEX
  8
LAYER_1
 10
-139.1165
 20
38.4711
  0
VERTEX
  8
LAYER_1
 10
-139.6658
 20
38.3988
  0
VERTEX
  8
LAYER_1
 10
-140.1769
 20
38.1868
  0
VERTEX
  8
LAYER_1
 10
-140.6165
 20
37.8499
  0
VERTEX
  8
LAYER_1
 10
-140.9534
 20
37.4103
  0
VERTEX
  8
LAYER_1
 10
-141.1658
 20
36.8988
  0
VERTEX
  8
LAYER_1
 10
-141.2378
 20
36.3499
  0
VERTEX
  8
LAYER_1
 10
-141.1658
 20
35.8006
  0
VERTEX
  8
LAYER_1
 10
-140.9534
 20
35.2891
  0
VERTEX
  8
LAYER_1
 10
-140.6165
 20
34.8498
  0
VERTEX
  8
LAYER_1
 10
-140.1769
 20
34.5126
  0
VERTEX
  8
LAYER_1
 10
-139.6658
 20
34.3006
  0
VERTEX
  8
LAYER_1
 10
-139.1165
 20
34.2286
  0
VERTEX
  8
LAYER_1
 10
-138.5672
 20
34.3006
  0
VERTEX
  8
LAYER_1
 10
-138.0557
 20
34.5126
  0
SEQEND
  8
LAYER_1
  0
POLYLINE
  8
LAYER_1
 66
     1
 70
     1
  0
VERTEX
  8
LAYER_1
 10
-201.531
 20
-95.189
  0
VERTEX
  8
LAYER_1
 10
-201.5585
 20
-95.7115
  0
VERTEX
  8
LAYER_1
 10
-201.6404
 20
-96.2285
  0
VERTEX
  8
LAYER_1
 10
-201.7758
 20
-96.7342
  0
VERTEX
  8
LAYER_1
 10
-201.9635
 20
-97.2228
  0
VERTEX
  8
LAYER_1
 10
-202.2009
 20
-97.6889
  0
VERTEX
  8
LAYER_1
 10
-202.4863
 20
-98.128
  0
VERTEX
  8
LAYER_1
 10
-202.8151
 20
-98.5347
  0
VERTEX
  8
LAYER_1
 10
-203.1852
 20
-98.9048
  0
VERTEX
  8
LAYER_1
 10
-203.5919
 20
-99.2341
  0
VERTEX
  8
LAYER_1
 10
-204.0311
 20
-99.519
  0
VERTEX
  8
LAYER_1
 10
-204.4972
 20
-99.7567
  0
VERTEX
  8
LAYER_1
 10
-204.9858
 20
-99.9442
  0
VERTEX
  8
LAYER_1
 10
-205.4913
 20
-100.0796
  0
VERTEX
  8
LAYER_1
 10
-206.0085
 20
-100.1613
  0
VERTEX
  8
LAYER_1
 10
-206.5309
 20
-100.1889
  0
VERTEX
  8
LAYER_1
 10
-207.0537
 20
-100.1613
  0
VERTEX
  8
LAYER_1
 10
-207.5706
 20
-100.0796
  0
VERTEX
  8
LAYER_1
 10
-208.0761
 20
-99.9442
  0
VERTEX
  8
LAYER_1
 10
-208.5647
 20
-99.7567
  0
VERTEX
  8
LAYER_1
 10
-209.0311
 20
-99.519
  0
VERTEX
  8
LAYER_1
 10
-209.4699
 20
-99.2341
  0
VERTEX
  8
LAYER_1
 10
-209.877
 20
-98.9048
  0
VERTEX
  8
LAYER_1
 10
-210.2467
 20
-98.5347
  0
VERTEX
  8
LAYER_1
 10
-210.5762
 20
-98.128
  0
VERTEX
  8
LAYER_1
 10
-210.8616
 20
-97.6889
  0
VERTEX
  8
LAYER_1
 10
-211.0987
 20
-97.2228
  0
VERTEX
  8
LAYER_1
 10
-211.2864
 20
-96.7342
  0
VERTEX
  8
LAYER_1
 10
-211.4218
 20
-96.2285
  0
VERTEX
  8
LAYER_1
 10
-211.5037
 20
-95.7115
  0
VERTEX
  8
LAYER_1
 10
-211.5312
 20
-95.189
  0
VERTEX
  8
LAYER_1
 10
-211.5037
 20
-94.6661
  0
VERTEX
  8
LAYER_1
 10
-211.4218
 20
-94.1494
  0
VERTEX
  8
LAYER_1
 10
-211.2864
 20
-93.6438
  0
VERTEX
  8
LAYER_1
 10
-211.0987
 20
-93.1553
  0
VERTEX
  8
LAYER_1
 10
-210.8616
 20
-92.6889
  0
VERTEX
  8
LAYER_1
 10
-210.5762
 20
-92.25
  0
VERTEX
  8
LAYER_1
 10
-210.2467
 20
-91.8434
  0
VERTEX
  8
LAYER_1
 10
-209.877
 20
-91.4732
  0
VERTEX
  8
LAYER_1
 10
-209.4699
 20
-91.1437
  0
VERTEX
  8
LAYER_1
 10
-209.0311
 20
-90.8587
  0
VERTEX
  8
LAYER_1
 10
-208.5647
 20
-90.6212
  0
VERTEX
  8
LAYER_1
 10
-208.0761
 20
-90.4336
  0
VERTEX
  8
LAYER_1
 10
-207.5706
 20
-90.298
  0
VERTEX
  8
LAYER_1
 10
-207.0537
 20
-90.2162
  0
VERTEX
  8
LAYER_1
 10
-206.5309
 20
-90.1892
  0
VERTEX
  8
LAYER_1
 10
-206.0085
 20
-90.2162
  0
VERTEX
  8
LAYER_1
 10
-205.4913
 20
-90.298
  0
VERTEX
  8
LAYER_1
 10
-204.9858
 20
-90.4336
  0
VERTEX
  8
LAYER_1
 10
-204.4972
 20
-90.6212
  0
VERTEX
  8
LAYER_1
 10
-204.0311
 20
-90.8587
  0
VERTEX
  8
LAYER_1
 10
-203.5919
 20
-91.1437
  0
VERTEX
  8
LAYER_1
 10
-203.1852
 20
-91.4732
  0
VERTEX
  8
LAYER_1
 10
-202.8151
 20
-91.8434
  0
VERTEX
  8
LAYER_1
 10
-202.4863
 20
-92.25
  0
VERTEX
  8
LAYER_1
 10
-202.2009
 20
-92.6889
  0
VERTEX
  8
LAYER_1
 10
-201.9635
 20
-93.1553
  0
VERTEX
  8
LAYER_1
 10
-201.7758
 20
-93.6438
  0
VERTEX
  8
LAYER_1
 10
-201.6404
 20
-94.1494
  0
VERTEX
  8
LAYER_1
 10
-201.5585
 20
-94.6661
  0
VERTEX
  8
LAYER_1
 10
-201.531
 20
-95.189
  0
SEQEND
  8
LAYER_1
  0
POLYLINE
  8
LAYER_1
 66
     1
 70
     1
  0
VERTEX
  8
LAYER_1
 10
-205.0309
 20
-93.689
  0
VERTEX
  8
LAYER_1
 10
-208.0309
 20
-93.689
  0
VERTEX
  8
LAYER_1
 10
-208.0309
 20
-96.689
  0
VERTEX
  8
LAYER_1
 10
-205.0309
 20
-96.689
  0
VERTEX
  8
LAYER_1
 10
-205.0309
 20
-93.689
  0
SEQEND
  8
LAYER_1
  0
POLYLINE
  8
LAYER_1
 66
     1
 70
     1
  0
VERTEX
  8
LAYER_1
 10
-141.496
 20
-95.1886
  0
VERTEX
  8
LAYER_1
 10
-141.5231
 20
-95.7114
  0
VERTEX
  8
LAYER_1
 10
-141.605
 20
-96.2283
  0
VERTEX
  8
LAYER_1
 10
-141.7405
 20
-96.7337
  0
VERTEX
  8
LAYER_1
 10
-141.9278
 20
-97.2224
  0
VERTEX
  8
LAYER_1
 10
-142.1656
 20
-97.6889
  0
VERTEX
  8
LAYER_1
 10
-142.451
 20
-98.1276
  0
VERTEX
  8
LAYER_1
 10
-142.7797
 20
-98.5344
  0
VERTEX
  8
LAYER_1
 10
-143.1502
 20
-98.9044
  0
VERTEX
  8
LAYER_1
 10
-143.5566
 20
-99.2339
  0
VERTEX
  8
LAYER_1
 10
-143.9958
 20
-99.519
  0
VERTEX
  8
LAYER_1
 10
-144.4618
 20
-99.7563
  0
VERTEX
  8
LAYER_1
 10
-144.9504
 20
-99.9442
  0
VERTEX
  8
LAYER_1
 10
-145.4559
 20
-100.0795
  0
VERTEX
  8
LAYER_1
 10
-145.9731
 20
-100.1613
  0
VERTEX
  8
LAYER_1
 10
-146.4956
 20
-100.1889
  0
VERTEX
  8
LAYER_1
 10
-147.0184
 20
-100.1613
  0
VERTEX
  8
LAYER_1
 10
-147.5352
 20
-100.0795
  0
VERTEX
  8
LAYER_1
 10
-148.0407
 20
-99.9442
  0
VERTEX
  8
LAYER_1
 10
-148.5297
 20
-99.7563
  0
VERTEX
  8
LAYER_1
 10
-148.9957
 20
-99.519
  0
VERTEX
  8
LAYER_1
 10
-149.4349
 20
-99.2339
  0
VERTEX
  8
LAYER_1
 10
-149.8413
 20
-98.9044
  0
VERTEX
  8
LAYER_1
 10
-150.2114
 20
-98.5344
  0
VERTEX
  8
LAYER_1
 10
-150.5409
 20
-98.1276
  0
VERTEX
  8
LAYER_1
 10
-150.8263
 20
-97.6889
  0
VERTEX
  8
LAYER_1
 10
-151.0633
 20
-97.2224
  0
VERTEX
  8
LAYER_1
 10
-151.251
 20
-96.7337
  0
VERTEX
  8
LAYER_1
 10
-151.3865
 20
-96.2283
  0
VERTEX
  8
LAYER_1
 10
-151.4683
 20
-95.7114
  0
VERTEX
  8
LAYER_1
 10
-151.4955
 20
-95.1886
  0
VERTEX
  8
LAYER_1
 10
-151.4683
 20
-94.6661
  0
VERTEX
  8
LAYER_1
 10
-151.3865
 20
-94.1492
  0
VERTEX
  8
LAYER_1
 10
-151.251
 20
-93.6438
  0
VERTEX
  8
LAYER_1
 10
-151.0633
 20
-93.1553
  0
VERTEX
  8
LAYER_1
 10
-150.8263
 20
-92.6888
  0
VERTEX
  8
LAYER_1
 10
-150.5409
 20
-92.25
  0
VERTEX
  8
LAYER_1
 10
-150.2114
 20
-91.8432
  0
VERTEX
  8
LAYER_1
 10
-149.8413
 20
-91.4732
  0
VERTEX
  8
LAYER_1
 10
-149.4349
 20
-91.1437
  0
VERTEX
  8
LAYER_1
 10
-148.9957
 20
-90.8586
  0
VERTEX
  8
LAYER_1
 10
-148.5297
 20
-90.6212
  0
VERTEX
  8
LAYER_1
 10
-148.0407
 20
-90.4335
  0
VERTEX
  8
LAYER_1
 10
-147.5352
 20
-90.298
  0
VERTEX
  8
LAYER_1
 10
-147.0184
 20
-90.2162
  0
VERTEX
  8
LAYER_1
 10
-146.4956
 20
-90.1887
  0
VERTEX
  8
LAYER_1
 10
-145.9731
 20
-90.2162
  0
VERTEX
  8
LAYER_1
 10
-145.4559
 20
-90.298
  0
VERTEX
  8
LAYER_1
 10
-144.9504
 20
-90.4335
  0
VERTEX
  8
LAYER_1
 10
-144.4618
 20
-90.6212
  0
VERTEX
  8
LAYER_1
 10
-143.9958
 20
-90.8586
  0
VERTEX
  8
LAYER_1
 10
-143.5566
 20
-91.1437
  0
VERTEX
  8
LAYER_1
 10
-143.1502
 20
-91.4732
  0
VERTEX
  8
LAYER_1
 10
-142.7797
 20
-91.8432
  0
VERTEX
  8
LAYER_1
 10
-142.451
 20
-92.25
  0
VERTEX
  8
LAYER_1
 10
-142.1656
 20
-92.6888
  0
VERTEX
  8
LAYER_1
 10
-141.9278
 20
-93.1553
  0
VERTEX
  8
LAYER_1
 10
-141.7405
 20
-93.6438
  0
VERTEX
  8
LAYER_1
 10
-141.605
 20
-94.1492
  0
VERTEX
  8
LAYER_1
 10
-141.5231
 20
-94.6661
  0
VERTEX
  8
LAYER_1
 10
-141.496
 20
-95.1886
  0
SEQEND
  8
LAYER_1
  0
POLYLINE
  8
LAYER_1
 66
     1
 70
     1
  0
VERTEX
  8
LAYER_1
 10
-144.9955
 20
-93.689
  0
VERTEX
  8
LAYER_1
 10
-147.9956
 20
-93.689
  0
VERTEX
  8
LAYER_1
 10
-147.9956
 20
-96.6885
  0
VERTEX
  8
LAYER_1
 10
-144.9955
 20
-96.6885
  0
VERTEX
  8
LAYER_1
 10
-144.9955
 20
-93.689
  0
SEQEND
  8
LAYER_1
  0
ENDSEC
  0
EOF
